Maylene And The Sons Of Disaster - Caution Dangerous Curves Ahead Chords & Tabs

 

Caution Dangerous Curves Ahead Chords & Tabs

Maylene And The Sons Of Disaster Chords & Tabs

Version: 1 Type: Tab

Caution Dangerous Curves Ahead Tab

   
BAND URL: http://www.mayleneandthesonsofdisaster.us/

This is only the ryhtem guitar part, none of the
solos are in here because I don't have that much
free time on my hands, haha. Enjoy, everyone  :)
------------------------------------------------

::INTRO::
Repeat this part four times. Chug away with the open D while palm muting it. On the 
time around you'll want to play an extra three chugs on the open D leading into the verse.

E|-------------------------------|-----|
B|-------------------------------|-----|
G|-------------------------------|-----|
D|6-5-0-3---0-3-10-0-0--0-0--0-0-|0-0-0|
A|6-5-0-3---0-3-10-0-0--0-0--0-0-|0-0-0|
D|6-5-0-3---0-3-10-0-0--0-0--0-0-|0-0-0|

::VERSE PART ONE::
Listen to the song to get the timing right, I think I got it tabed out pretty close, but 
need the song to get the right southern feel, y'all. On the last two parts make sure to 
mute the open D chugs. The last bit goes on for a good while.
[ Tab from: http://www.guitartabs.cc/tabs/m/maylene_and_the_sons_of_disaster/caution_dangerous_curves_ahead_tab.html ]
NOTE:-----------|YOU PLAY THIS PART AGAIN, BUT-------------------------------------------|
NOTE:-----------|SLIGHTLY DIFFERENT LATER ON.--------------------------------------------|
E|--------------|-------------------------------|-------------------------|--------------|
B|--------------|-------------------------------|-------------------------|--------------|
G|--------------|-------------------------------|-------------------------|--------------|
D|---0-0-3-0----|---0-0-3-0-------0-3-0-6-6-5-0-|-x-x-x-x-x-x-0-0-0-0-0-0-|-0-0-0-0-0-0--|
A|---0-0-3-0----|---0-0-3-0-------0-3-0-6-6-5-0-|-x-x-x-x-x-x-0-0-0-0-0-0-|-0-0-0-0-0-0--|
D|---0-0-3-0----|---0-0-3-0-------0-3-0-6-6-5-0-|-x-x-x-x-x-x-0-0-0-0-0-0-|-0-0-0-0-0-0--|

::PRE-CHORUS::
Listen to the song for the ryhthem and timing. Also, with the harmonics, note that's 10, 
down to 7, not fret 107 or 109, haha. Repeat this a bunch of times until you get to the 
go figure.

E|------------------------------|---------|
B|------------------------------|---------|
G|------------------------7-107-|-109-7-5-|
D|-7-7-10-7---7-5-7---7-7-x-x-x-|-x-x-x-x-|
A|-7-7-10-7---7-5-7---7-7-5-8-5-|-8-7-5-3-|
D|-7-7-10-7---7-5-7---7-7-------|---------|

::CHORUS? I'M NOW REALIZING THIS SONG HAS NO STRUCTURE::
Again, listen to the song for timing. And again... haha, that's 10 down to 9, not 109.

E|-----------------------------|
B|-----------------------------|
G|-----------7-----109-7-9-7-5-|
D|0---0-2-3--x-5---x-x-x-x-x-x-|
A|0---0-2-3--5-5---8-7-5-7-5-3-|
D|0---0-2-3----5---------------|

::I HAVE NO IDEA WHAT YOU'D CALL THIS, BUT IT COMES AFTER THE LAST PART::
I'm not sure if he does a pinch harmonic after the chugg'n, but what I have there 
up. Mess around with the bend to make it sound right.

E|-----|10b|
B|-----|---|
G|-----|---|
D|00000|---|
A|00000|---|
D|00000|---|

---------------------------------------------
After all of that, you simply play the second
half of the verse where it says, "YOU WILL
PLAY THIS LATER ON". Listen to the song to
hear how he plays it a bit differently.
---------------------------------------------

::ENDING::
E|---------|
B|---------|
G|---------|
D|-6-6-5-0-|
A|-6-6-5-0-|
D|-6-6-5-0-|