Mayhem Soul - Lost In Space Chords & Tabs

 

Lost In Space Chords & Tabs

Mayhem Soul Chords & Tabs

Version: 1 Type: Tab 0 ratings
1 star 2 stars 3 stars 4 stars 5 stars
comments

Lost In Space Tab

   
Band:  Mayhem Soul
Song:  Lost In Space
Written by:  Mayhem Soul

Intro 1 (GTR 1 plays the first part, then GTR 2 plays the second part)
e:  |-----------------|-----------------|
B:  |-----------------|-----------------|
G:  |-----------------|-----------------|
D:  |---------7h8-5-3-|---------7h8-5-3-|
A:  |-----------------|-----------------|
E:  |-00000000---0-0--|-00000000---0-0--|
PM    ********   * *    ********   * *

Intro 2
GTR 1
e:  |--------------------------|
B:  |--------------------------|
G:  |----------------9h10-7-3/-|
D:  |--------------------------|
A:  |--------------------------|
E:  |-0-0-0-0-0-0-0-0----0-0---|
PM    * * * * * * * *    * *

GTR 2
e:  |--------------------------|
B:  |--------------------------|
G:  |--------------------------|
D:  |--------------------------|
A:  |-----------------7h8-5-3/-|
E:  |-0-0-0-0-0-0-0-0----0-0---|
PM    * * * * * * * *    * *

Intro 3
GTR 1
e:  |-----------------------------|
B:  |-----------------------------|
G:  |-----------------------------|
D:  |------------------5----5---5-|
A:  |------------------5----5---5-|
E:  |-0000000000000000-3-00-3-0-3-|
PM    ****************   **   *

Verse 2a
GTR 1 + 2
e:  |-----------------------------|
B:  |-----------------------------|
G:  |-----------------------------|
D:  |------------------5----5---5-|
A:  |------------------5----5---5-|
E:  |-0000000000000000-3-00-3-0-3-|
PM    ****************   **   *

Verse 2b
GTR 1 + 2
e:  |-----------------------------|
B:  |-----------------------------|
G:  |-----------------------------|
D:  |------------------8----8---8-|
A:  |------------------8----8---8-|
E:  |-0000000000000000-6-00-6-0-6-|
PM    ****************   **   *

Pre-Chorus
GTR 1             GTR 2
e:  |-------------|-----------------|
B:  |-------------|-----------------|
G:  |-------------|-----------------|
D:  |-17\---2---|-2---------------|
A:  |-17\---2---|-2---------------|
E:  |-17\---0---|-0---------------|
[ Tab from: http://www.guitartabs.cc/tabs/m/mayhem_soul/lost_in_space_tab.html ]
Chorus A
GTR 1 + 2
e:  |-----------------------------|
B:  |-----------------------------|
G:  |-----------------------------|
D:  |-----------------78---5---3-|
A:  |-----------------78---5---3-|
E:  |-0-0-0-0-0-0-0-0-56-0-3-0-1-|
PM    * * * * * * * *     *   *

Chorus B
GTR 1 + 2
e:  |-----------------|
B:  |-----------------|
G:  |-----------------|
D:  |-8--8-8-8--8-8-2-|
A:  |-8--8-8-8--8-8-2-|
E:  |-6--6-6-6--6-6-0-|

Interlude
GTR 2
e:  |----------------------------------------------|
B:  |----------------------------------------------|
G:  |----------------------------------------------|
D:  |-------------------------------------------2--|
A:  |-------------------------------------------2--|
E:  |-00-6h8-0-8p6-00-5h7-0-7h5-00-3h5-0-5p3-00-0--|
PM    **     *     **     *     **     *     **

GTR 1 w/ wah
e:  |----------------------------------------------|
B:  |----------------------------------------------|
G:  |----------------------------------------------|
D:  |-------------------------------------------12-|
A:  |----8h10-10h8----7h9---9p7----5h7---7p5----12-|
E:  |-00-----0-----00-----0-----00-----0-----00-10-|
PM    **     *     **     *     **     *     **

Verse 3
GTR 1 + 2
e:  |------------------------------------------------|
B:  |------------------------------------------------|
G:  |------------------------------------------------|
D:  |----108----2----97----2----75----2----2----2-|
A:  |----108----2----97----2----75----2----2----2-|
E:  |-00-8-6-00-0-00-75-00-0-00-53-00-0-00-0-00-0-|
PM    **      **   **     **   **     **   **   **

SONG ORDER
Intro 1         x1
Intro 2         x2
Intro 3         x4

Verse 1a        x4
Verse 1b        x4
Verse 1a        x4

Pre-Chorus      x1
Chorus A        x6
Chorus B        x1

Verse 1a        x4
Verse 1b        x4
Verse 1a        x4

Pre-Chorus      x1
Chorus A        x6
Chorus B        x1

Interlude GTR 2 x2
Interlude 1 + 2 x6

Verse 3         x4

Chorus A        x6
Chorus B        x1
Comments