Mayhem - The Freezing Moon Chords & Tabs

 

The Freezing Moon Chords & Tabs

Mayhem Chords & Tabs

Version: 1 Type: Tab 0 ratings
1 star 2 stars 3 stars 4 stars 5 stars
comments

The Freezing Moon Tab

   
/---------------------------------------------------------------------------
/ The following is the author's own interpretation of the song, to be used -
/ for studying or private use only, removal of any part of this ten line   -
/ header is illegal!!!  Removal of the transcribers name or anything       -
/ relevant to the transcriber is also illegal, as so is the removal of the -
/ place inwhich the tab was downloaded. Publishing as well as printing of  -
/ the tab is illegal without permission of the transcriber and copyright   -
/ owner of the song. Failure to apply to these laws result will in legal   -
/ action from the appropriate parties.                                     -
/---------------------------------------------------------------------------
downloaded from the Catacombs of Displacer's Death Tab Site at
        http://www.dsrmusic.com/metaltab
join the death/black tab emailing list by filling out the free
subscription form at http://www.dsrmusic.com/metaltab/join.htm
[ Tab from: http://www.guitartabs.cc/tabs/m/mayhem/the_freezing_moon_tab.html ]
join the death/black tab mailing list by emailing rich@dsrmusic.comFREEZING MOON by MAYHEM
~
Typed by Janne Posti 00:25-00:32 28th February 1998
~
Intro riff
~
|-----0----------0----------0-------------------|
|-------0----------0----------0-----------------|
|---------0----------0----------0---------------|
|-2----------2----------2-----------7-8-8-7-5-3-|
|-2----------2----------2-----------7-8-8-7-5-3-|
|-0----------0----------0-----------5-6-6-5-3-1-|
~
Play 8 times
~
Riff A
~
|-----------------------------------------------------------------|
|-----------------------------------------------------------------|
|--------9--9-9\-------9-8--8-8\---------9--9-9\------------------|
|-2--2-2-9--9-9\--2--2-9-8--8-8\--2--2-2-9--9-9\--2--2-2--3--3-3--|
|-2--2-2-7--7-7\--2--2-7-6--6-6\--2--2-2-7--7-7\--2--2-2--3--3-3--|
|-0--0-0----------0--0------------0--0-0----------0--0-0--1--1-1--|
~
Play 4 times
~
Bridge riff
~
|---------------|
|---------------|
|---------8--9--|
|-2-2-2-2-8--9--|
|-2-2-2-2-6--7--|
|-0-0-0-0-------|
~
Play 8 times
~
Riff B
~
|----------------------------------|
|----------------------------------|
|-----------------99999999---------|
|-22222222888888889999999988888888-|
|-22222222888888887777777788888888-|
|-0000000066666666--------66666666-|
~
Play 4 times
~
Verse riff
~
|----------------------------------|
|----------------------------------|
|-------------------------9999-----|
|-22222222222222228888888899998888-|
|-22222222222222228888888877778888-|
|-000000000000000066666666----6666-|
~
Play 4 times
Play Riff B 4 times
Play verse riff 4 times
Play Riff B 4 times
~
Drum solo (Guitar open E chord)
~
Bass (intro to riff C)
~
Guitar comes in with a slide
~
Riff C
~
|------------------------|
|------------------------|
|------------------------|
|-2----3----2-2--2--3----|
|-2----3----2-2--2--3----|
|-0----1----0-0--0--1----|
~
Play 14 times
~
Solo (b = bend this note to the pitch written after it) note: this solo is
my version, as Euronymous' version is different in every Mayhem release. I
have written it the way I play it, with all my own fills and improvisations.
~
~                          
|-10h12-12--12p10----10h12-12b13--12p10---------------------------------|
|-----------------12--------------------12-12h13--13-12-10--------------|
|----------------------------------------------------------12-11-9-8-9--|
|-----------------------------------------------------------------------|
|-----------------------------------------------------------------------|
|-----------------------------------------------------------------------|
~
Solo (cont.)
~
|------------------------------15-----14----------13--16-15-13-----------|
|---------------------12-12-12-----12----13-13-13--------------12-12-12--|
|-9b10--9-8h9p8----------------------------------------------------------|
|---------------9-10-----------------------------------------------------|
|------------------------------------------------------------------------|
|------------------------------------------------------------------------|
~
Solo (cont.)
~
|-15-----14----------13--16-15-13-------------------------------------|
|-----12----13-13-13--------------12h13p12-10h12p10-------------------|
|---------------------------------------------------12h14p12-11-12b13-|
|---------------------------------------------------------------------|
|---------------------------------------------------------------------|
|---------------------------------------------------------------------|
~
Solo (cont.)
~
|-------------------------------------12--12-12-15-14-12-15-13--13-13-|
|---------------------------------------------------------------------|
|-11h12p11-9--8h9-11-9h11p9p8-----------------------------------------|
|-----------------------------9-10\-----------------------------------|
|---------------------------------------------------------------------|
|---------------------------------------------------------------------|
~
Solo (cont.)
~
|-16-15-13-15-12--12-12-15-14-12-15-13--13-13-16-15-13-15-19-17-15-----|
|------------------------------------------------------------------17\-|
|----------------------------------------------------------------------|
|----------------------------------------------------------------------|
|----------------------------------------------------------------------|
|----------------------------------------------------------------------|
~
Solo (cont.)
~
|-20-18-16------19-17-15----------------------------------------------|
|----------18\-----------17--15h17p15-12--13---17~--15-17-17b18-17-15-|
|---------------------------------------------------------------------|
|---------------------------------------------------------------------|
|---------------------------------------------------------------------|
|---------------------------------------------------------------------|
~
Solo (cont.)
~
|----------------------------------------------------------------------|
|-1715--------------------------------------------------------15--1517-|
|-----171617141617161416171614--------------14--14161416171617--17-----|
|-----------------------------17161416171617--17-----------------------|
|----------------------------------------------------------------------|
|----------------------------------------------------------------------|
~
Solo (cont.)
~
|-----------17----------------------------------171917------1921b24-|
|-1719201920------------------15--15171719201920------201920--------|
|---------------14161416171617--17----------------------------------|
|-------------17----------------------------------------------------|
|-------------------------------------------------------------------|
|-------------------------------------------------------------------|
~
Play Riff C 8 times
Play Riff B 8 times
~
The End.
Comments