Mayhem - Pagan Fears Chords & Tabs

 

Pagan Fears Chords & Tabs

Mayhem Chords & Tabs

Version: 1 Type: Tab 0 ratings
1 star 2 stars 3 stars 4 stars 5 stars
comments

Pagan Fears Tab

- Mayhem - Pagan Fears
- from "De Mysteriis Dom Sathanas"
- if you have any corrections or tips (or tabs for grand decl of war... ;) )
  send them to renegade.angel@softhome.net
- standard tuning

riff1 x4

|-----------------------------------|
|-----------------------------------|
|--------4-4-4-4--------------------|
|-2(2  )-3-2-3-2-x3-----------------|
|-2(2  )------------3-----3-3-3-3-3-|
|-0-000-------------1-111-1-2-1-2-1-|

fill1

play this twice
|-------------------------------------------------|
|-------------------------------------------------|
|-------------------------------------------------|
|---2--------2-----4-------2-------2-----4------3-|
|-----2----2-----4-----3-----2---2-----4------3---|
|-0-----0------2-----1---0-----0-----2------1-----|

play this twice
|-----------------------------------------------|
|-----------------------------------------------|
|-----------5---------------------5-------------|
|---2-----5-------4-------2-----5-------4-----3-|
|-----2-3-------4-----3-----2-3-------4-----3---|
|-0-----------2-----1---0-----------2-----1-----|

riff1 x4

fill2 x4 1st and 3rd time different timing

|---------------------|
|---------------------|
|---------------------|
|-9----8----5----8----|
|-7-x8-6-x8-7-x8-6-x8-|
|---------------------|

riff2 x8

|-----------------------------------------|
|-----------------------------------------|
|-----------------------------------------|
|-----------------------------------------|
|-2-x8-3-2-x6-3-x16-2-x8-3-2-x6-4-x8-3-x8-|
|-0----1-0----1-----0----1-0----2----1----|

riff3 x4
[ Tab from: http://www.guitartabs.cc/tabs/m/mayhem/pagan_fears_tab.html ]
|----------------------------------------|
|----------------------------------------|
|-------------6----------------6----5----|
|-------------6-x8-------------6-x8-5-x8-|
|-2-x8-3-2-x6-4----2-x8-3-2-x6-4----3----|
|-0----1-0---------0----1-0--------------|

riff2 x4

riff3 x2

riff2 x2

riff4 x1

|---------------------------------------------------------------------|
|---------------------------------------------------------------------|
|---------------------------------------------------------------------|
|-2---2---2---2---4---4----5---4----2---2---2---2----5---5---5---5----|
|-2---2---2---2---4---4-------------2---2---2---2----5---5---5---5----|
|-0000000000000000222222222-222-222-0000000000000000-3333333333333333-|

|---------------------------------------------------------------------|
|---------------------------------------------------------------------|
|---------------------------------------------------------------------|
|-2---2---2---2---4---4----5---4----2---2---2---2----6---6---6---6----|
|-2---2---2---2---4---4-------------2---2---2---2----6---6---6---6----|
|-0000000000000000222222222-222-222-0000000000000000-4444444444444444-|

riff5 x4

|----------------------------|
|----------------------------|
|----------------------------|
|-2---------11----12---11----|
|-2-x8-10-x8-9-x8-10-x8-9-x8-|
|-0--------------------------|

riff6 x2

|--------------------------|
|-6-----------6------------|
|-9-----8-----9-----11-----|
|-9-x16-8-x16-9-x16-11-x16-|
|-7-----6-----7------9-----|
|-0-----------0------------|

riff7 x2

|-------------------------------------------------|
|-6----------------------6------------------------|
|-9-----8----7----8------9-----11-----12----11----|
|-9-x16-8-x8-7-x4-8-x4---9-x16-11-x8--12-x4-11-x4-|
|-7-----6----5----6------7------9-----10-----9----|
|-0----------------------0------------------------|

last time riff7 play this at end

|-------------------|
|-------------------|
|-10----8---------8-|
|-10-x8---10-9-10---|
|--8----------------|
|-------------------|

riff2 x8

riff3 x4

-the end
Comments