Mayhem - Necrolust Chords & Tabs

 

Necrolust Chords & Tabs

Mayhem Chords & Tabs

Version: 1 Type: Tab 0 ratings
1 star 2 stars 3 stars 4 stars 5 stars
comments

Necrolust Tab

Band:		Mayhem
Song:   	Necrolust
Album:          Deathcrush
Tabed by:	Black Metaller (blackmetaller666@hotmail.com)


Tune to D

Key:

/= slide up
\=slide down
*=Unspecified fret
PM ..= Palm Mute
!=Play note short
}X#= play this # times
Tem..= Tremelo picking

Drums & cymbals and xxxx with this
Riff 1 (Intro)
D------------------------------------------------
A------------------------------------------------
E------------------------------------------------
B------------------------------------------------
G--3-3--------3-3---------3-3--------3-3---------
D--1-1--------1-1---------1-1--------1-1---------

Riff 2
D----------------------------------------------------------
A---------------------------------------------------------- 
E---------------------------------------------------------- 
B----------------------------------------------------------
G--4-3--3-3-3-3-3-3-3-3-3-3-3-3----------------------------
D--2-1--1-1-1-1-1-1-1-1-1-1-1-1----------------------------
       PM......................

Riff 3
D----------------------------------------------------------------
A----------------------------------------------------------------
E---------------------------------------------------------------- 
B---------------------------------------------------------------- 
G--4-3-3-333-333-333-333-333-------------------------------------
D--2-1-1-111-111-111-111-111-------------------------------------
       PM......................


Riff 4
D-------------
A-------------
E-------------
B-------------
G--4-3--------
D--2-1--------

Riff 5
D------------- 
A------------- 
E-------------
B-------------
G--2-1--------
D-------------

Speeds way up here
[ Tab from: http://www.guitartabs.cc/tabs/m/mayhem/necrolust_tab.html ]
Riff 6
D----------------------------------------------------------------
A----------------------------------------------------------------
E---------------------------------------------------------------- 
B---------------------------------------7--7---------------------
G-7---------7---------7---------7-6-6---5--5---------------------
D-5\4444444-5\4444444-5\4444444-5\4-4----------------------------
 Trem.......................


Riff 7
D--------------- 
A--------------- 
E---------------
B---------------
G--6--7---------
D--4--5---------

Riff 8
D----------------------------------------------------------------
A----------------------------------------------------------------
E---------------------------------------------------------------- 
B---------------------------------------------------------------- 
G---------------------------5------------------------------------
D--5\4444-5\4444-5\4444-5\4---4----------------------------------
 Trem..........................


Riff9
D----------------------------------------------------------
A----------------------------------------------------------
E---------------------------------------------------------- 
B---------------------------------------------------------- 
G----------------------------------------------7-7-7------- 
D--666699998888-666699998888-666699998888-6666-5-5-5------- 
 

Riff 10
D----------------------------------------------------------
A----------------------------------------------------------
E---------------------------------------------------------- 
B---------------------------------------------------------- 
G---------------------------------------------------------- 
D--999988886666-999988886666-999988886666-999988886666-----

Riff 11
D----------------------------------------------------------
A----------------------------------------------------------
E----------------------------------------------------------
B---------------------------------------------------------- 
G--77777766-77777766-77777766-77777766--------------------- 
D----------------------------------------------------------

Riff 12
D------------
A------------
E------------
B------------
G--6---------
D--4---------



Solo:
A bunch of random tremolo xxxx


Order:

Riff 1 x1
Riff 2 x4
Riff 3 x4
Riff 4 x1
Riff 5 x1
Riff 6 x6
Riff 7 x1
Riff 8 x12
Riff 9 x2
Riff 8 x8
Riff 9 x2
Riff 10 x2
Solo
Riff 11 x2
Riff 12 x1
Riff 8 x12
Riff 9 x2
Riff 8 x4
Riff 12 x1
Comments