Mayhem - From The Dark Past Chords & Tabs

 

From The Dark Past Chords & Tabs

Mayhem Chords & Tabs

Version: 1 Type: Tab 0 ratings
1 star 2 stars 3 stars 4 stars 5 stars
comments

From The Dark Past Tab

<=-=-=-=-=-=-=-=-=-=-=-=-=-=-=-=-=-=-=-=-=-=-=-=-=-=-=-=-=-=-=-=-=-=-=-=>
Title:............From The Dark Past
Artist:...........Mayhem
Album:............De Mysteriis Dom Sathanas
Transcribed by:...Eldsjelen
                  @: eldsjelen@yahoo.com 
                  www: http://www.geocities.com/eldsjelen/
<=-=-=-=-=-=-=-=-=-=-=-=-=-=-=-=-=-=-=-=-=-=-=-=-=-=-=-=-=-=-=-=-=-=-=-=>

 If anyone have transcribed solos of Carnage/Necrolust/Life Eternal
 please send them to eldsjelen@yahoo.com

<=-=-=-=-=-=-=-=-=-=-=-=-=-=-=-=-=-=-=-=-=-=-=-=-=-=-=-=-=-=-=-=-=-=-=-=>

  /   = Slide
  R   = Let Ring
 [x]  = Play note x times
  #   = Pick Scrape
 (x)  = Not necessary to play note

-

RIFF 1 - [00:00-00:26] - Play 12x

|-----------------------|
|-----------------------|
|--------4--------------|
|------3-----4---3------|
|----3-----2---1-----4--|
|-1-1--------------2----|

-

RIFF 2a - [00:27-00:48] - Play 4x (first 2times play quiet)

|-----------------------------------|
|-----------------------------------|
|-----------------------------------|
|-----------------------------------|
|-3--33-4--3--33-5--3--33-4-3--10/3-|
|-1--11-2--1--11-3--1--11-2-1---8/1-|

-

RIFF 2b - [00:48-01:00] - Play 4x

|------------|
|------------|
|------------|
|------------|
|-3R----10/3-| Instead of sliding you can pick scrape or
|-1R-----8/1-| fuck it up some way. Anyway make some noise
   
-

then again 
RIFF 2a - [01:00-01:10] - Play 2x

-

RIFF 3 - [01:10-01:57] - Play 4x

|-----------------------------------------------------------------|
|-----------------------------------------------------------------|
|-----------------------------------------------------------------|
|-------------------------6-[16x]---------------------------------|
|-3-[16x]-5-[16x]-3-[16x]-4-[16x]-3-[16x]-5-[16x]-3-[16x]-7-[16x]-|
|-1-[16x]-3-[16x]-1-[16x]---------1-[16x]-3-[16x]-1-[16x]-5-[16x]-|

-

then again 
RIFF 2a - [01:57-02:09] - Play 2x

-

RIFF3 - [02:09-02:55] - Play 4x (Last time let the last note ring to 02:58)

-
[ Tab from: http://www.guitartabs.cc/tabs/m/mayhem/from_the_dark_past_tab.html ]
RIFF4a - [02:58-3:23] - Play 2x - (Those are ones below, not eleven)

|-------------------------------------------------------------------------|
|-------------------------------------------------------------------------|
|-------------------------------------------------------------------------|
|-------------------------------------------------------------------------|
|7777777777777777777777777777777777/1-1111111111111111111111111111111111/7|
|-------------------------------------------------------------------------|

-

RIFF4b - [03:23-03:49] - Play 2x

|--------------------------------------------------------------------------|
|--------------------------------------------------------------------------|
|--------------------------------------------------------------------------|
|9(99999999999999999999999999999)/#/3(333333333333333333333333333333333333)|
|7R------------------------------/#/1R-------------------------------------|
|--------------------------------------------------------------------------|

-

RIFF5 - [03:49-04:11] - Play 2x (figure the rhythm yourself)

|-----------------------------------------------------------------|
|-----------------------------------------------------------------|
|-----------------------------------------------------------------|
|-9------3------7-----------------9------3------7----------6------|
|-7------1------5------7---6------7------1------5------7---4------|
|----------------------5---4---------------------------5----------|

-

RIFF5 - [04:11-05:24] - Play 4x (Last time let the last note ring)

|--------------------------------------------------------------------------|
|--------------------------------------------------------------------------|
|--------------------------------------------------------------------------|
|9-[16x]-3-[16x]-7-[16x]---------------9-[16x]-3-[16x]-7-[16x]--------6|8x]|
|7-[16x]-1-[16x]-5-[16x]-7-[8x]-6-[8x]-7-[16x]-1-[16x]-5-[16x]-7-[8x]-4[8x]|
|------------------------5-[8x]-4-[8x]-------------------------5-[8x]------|

-

<=-=-=-=-=-=-=-=-=-=-=-=-=-=-=-=-=-=-=-=-=-=-=-=-=-=-=-=-=-=-=-=-=-=-=-=>
Comments