Mayhem - Freezing Moon Chords & Tabs

 

Freezing Moon Chords & Tabs

Mayhem Chords & Tabs

Version: 3 Type: Tab 0 ratings
1 star 2 stars 3 stars 4 stars 5 stars
comments

Freezing Moon Tab

My Version Of Solo
[ Tab from: http://www.guitartabs.cc/tabs/m/mayhem/freezing_moon_tab_ver_3.html ]
~                          
|-10h12-12--12p10----10h12-12b13--12p10---------------------------------|
|-----------------12--------------------12-12h13--13-12-10--------------|
|----------------------------------------------------------12-11-9-8-9--|
|-----------------------------------------------------------------------|
|-----------------------------------------------------------------------|
|-----------------------------------------------------------------------|
~
Solo (cont.)
~
|------------------------------15-----14----------13--16-15-13-----------|
|---------------------12-12-12-----12----13-13-13--------------12-12-12--|
|-9b10--9-8h9p8----------------------------------------------------------|
|---------------9-10-----------------------------------------------------|
|------------------------------------------------------------------------|
|------------------------------------------------------------------------|
~
Solo (cont.)
~
|-15-----14----------13--16-15-13-------------------------------------|
|-----12----13-13-13--------------12h13p12-10h12p10-------------------|
|---------------------------------------------------12h14p12-11-12b13-|
|---------------------------------------------------------------------|
|---------------------------------------------------------------------|
|---------------------------------------------------------------------|
~
Solo (cont.)
~
|-------------------------------------12--12-12-15-14-12-15-13--13-13-|
|---------------------------------------------------------------------|
|-11h12p11-9--8h9-11-9h11p9p8-----------------------------------------|
|-----------------------------9-10\-----------------------------------|
|---------------------------------------------------------------------|
|---------------------------------------------------------------------|
~
Solo (cont.)
~
|-16-15-13-15-12--12-12-15-14-12-15-13--13-13-16-15-13-15-19-17-15-----|
|------------------------------------------------------------------17\-|
|----------------------------------------------------------------------|
|----------------------------------------------------------------------|
|----------------------------------------------------------------------|
|----------------------------------------------------------------------|
~
Solo (cont.)
~
|-20-18-16------19-17-15----------------------------------------------|
|----------18\-----------17--15h17p15-12--13---17~--15-17-17b18-17-15-|
|---------------------------------------------------------------------|
|---------------------------------------------------------------------|
|---------------------------------------------------------------------|
|---------------------------------------------------------------------|
~
Solo (cont.)
~
|----------------------------------------------------------------------|
|-1715--------------------------------------------------------15--1517-|
|-----171617141617161416171614--------------14--14161416171617--17-----|
|-----------------------------17161416171617--17-----------------------|
|----------------------------------------------------------------------|
|----------------------------------------------------------------------|
~
Solo (cont.)
~
|-----------17----------------------------------171917------1921b24-|
|-1719201920------------------15--15171719201920------201920--------|
|---------------14161416171617--17----------------------------------|
|-------------17----------------------------------------------------|
|-------------------------------------------------------------------|
|-------------------------------------------------------------------|
~
Comments