Mayhem - Freezing Moon Chords & Tabs

 

Freezing Moon Chords & Tabs

Mayhem Chords & Tabs

Version: 1 Type: Tab 0 ratings
1 star 2 stars 3 stars 4 stars 5 stars
comments

Freezing Moon Tab

Artist: Mayhem
Song: Freezing Moon
Album: De Mysteriis Dom Sathanas - 1994

Transcribbed by Sigurd (2:478/67.13@Fidonet)

Intro:
|----0-----------0----------0--------------------|
|------0-----------0----------0------------------|
|--------0-----------0----------0----------------|
|-2--------0-2---------2-2--------0--7-8-8-7-5-3-|
|-2----------2---------2-2-----------7-8-8-7-5-3-|
|-0----------0---------0-0-----------5-6-6-5-3-1-|

Play 8 times

Riff A (guitar I):
|-----------------------------------------------------------------|
|-----------------------------------------------------------------|
|--------9--9-9\---------8--8-8\---------9--9-9\------------------|
|-2--2-2-9--9-9\--2--2-2-8--8-8\--2--2-2-9--9-9\--2--2-2--3--3-3--|
|-2--2-2-7--7-7\--2--2-2-6--6-6\--2--2-2-7--7-7\--2--2-2--3--3-3--|
|-0--0-0----------0--0-0----------0--0-0----------0--0-0--1--1-1--|
[ Tab from: http://www.guitartabs.cc/tabs/m/mayhem/freezing_moon_tab.html ]
Riff A (guitar II):
|-----------------------------------------------------------------|
|-----------------------------------------------------------------|
|--------9--9-9\---------8--8-8\---------9--9-9\----------10--10\-|
|-2--2-2-9--9-9\--2--2-2-8--8-8\--2--2-2-9--9-9\--2--2-2--10--10\-|
|-2--2-2-7--7-7\--2--2-2-6--6-6\--2--2-2-7--7-7\--2--2-2---8---8\-|
|-0--0-0----------0--0-0----------0--0-0----------0--0-0----------|

Play 4 times

Bridge:
|-----------|
|-----------|
|------8-9--|
|-2222-8-9--|
|-2222-6-7--|
|-0000------|
Play 8 times (guitar II starts from 5th)

Riff B: (both guitars)
|----------------------------------|
|----------------------------------|
|-----------------99999999---------|
|-22222222888888889999999988888888-|
|-22222222888888887777777788888888-|
|-0000000066666666--------66666666-|

Play 4 times


Verse:
|----------------------------------|
|----------------------------------|
|-------------------------9999-----|
|-22222222222222228888888899998888-|
|-22222222222222228888888877778888-|
|-000000000000000066666666----6666-|

Play 4 times

than play Riff B 4 times and Verse riff 4 times and to Riff B again and finish
with E5 power chord.

Drum and Bass intro to next riff then slide to this:

Riff C: (guitar I)
|------------------------|
|------------------------|
|------------------------|
|-2----3----2-2--2--3----|
|-2----3----2-2--2--3----|
|-0----1----0-0--0--1----|

Guitar I plays this 14 times and guitar II plays solo
(not transcribbed yet, sorry ;-) )

Play Riff C 8 times
Play Riff B 8 times

---
* Origin: "Out of light is my path..." (2:487/67.13)
Comments