Mayhem - Deathcrush Chords & Tabs

 

Deathcrush Chords & Tabs

Mayhem Chords & Tabs

Version: 1 Type: Tab 0 ratings
1 star 2 stars 3 stars 4 stars 5 stars
comments

Deathcrush Tab

   
Mayhem:Deathcrush
This is my first tab but this should be right.
TablEdited by 
Mika Puikkonen
mpuikkonen@hotmail.com Send Any Corrections, Questions And Other Shit !!!
Tuning : E A D G B E    

Listen some changes at end at riff c!!!! Listen repeats to...
[ Tab from: http://www.guitartabs.cc/tabs/m/mayhem/deathcrush_tab.html ]
Riff A       
|--------------------------------|-------------------------------|
|--------------------------------|-------------------------------|
|--------------------------------|-------------------------------|
|--------------------------------|-------------------------------|
|2---2-----5---x----9-8----------|2---2-----5---x----8-8---------|
|0---0-----3---x----7-6----------|0---0-----3---x----6-6---------|

Riff B
|--------------------------------|
|--------------------------------|
|--------------------------------|
|--------------------------------|
|777888777888777888121212101010--|
|5556665556665556661010108-8-8---|

 Riff C   
|--------------------------------|
|--------------------------------|
|--------------------------------|
|--------------------------------|
|7-7-7-7-7-7-7-7-7-7-7-7-6-6-6---|
|5-5-5-5-5-5-5-5-5-5-5-5-4-4-4---|


Created with TablEdit http://www.tabledit.com/
Comments