Mayhem - Chainsaw Gutsfuck Chords & Tabs

 

Chainsaw Gutsfuck Chords & Tabs

Mayhem Chords & Tabs

Version: 1 Type: Tab 0 ratings
1 star 2 stars 3 stars 4 stars 5 stars
comments

Chainsaw Gutsfuck Tab

   
Mayhem-Chainsaw Gutsxxxx
Transcribed By: Black Metaller (blackmetaller666@hotmail.com
Album:Deathcrush

Tune to C

Begining Bass Riff w/Distortion
----------------------------------------------
----------------------------------------------
----------------------------------------------
-0-3-2-----0-3-2-------0-3-2-------0-3-2------

Riff A
------------------
------------------
------------------
------------------
--4-4-------------
--2-2-------------
pm..

Riff B
-------------------------------------------
-------------------------------------------
-------------------------------------------
-------------------------------------------
--2-5-4------------------------------------
--0-3-2------------------------------------

Riff C
---------------------------------
---------------------------------
---------------------------------
---------------------------------
---3-3-3-3-3/4-4/5---------------
---1-1-1-1-1/2-2/3---------------

Riff D
---------------------------------
---------------------------------
---------------------------------
---------------------------------
---2-2-3-2-4-3-------------------
---0-0-1-0-----4-3---------------
[ Tab from: http://www.guitartabs.cc/tabs/m/mayhem/chainsaw_gutsfuck_tab.html ]
Riff E
---------------------------------
---------------------------------
---------------------------------
---------------------------------
--2~------2~---------------------
--0~------0~---------------------

There's a pick scrape after this, just include it in riff e

Riff F
---------------------------------
---------------------------------
---------------------------------
---------------------------------
--2~-----3~----------------------
--0~-----1~----------------------

Riff G
---------------------------------
---------------------------------
---------------------------------
---------------------------------
--------1------------------------
-0000000-------------------------

Riff H
---------------------------------
---------------------------------
---------------------------------
---------------------------------
----1----------------------------
-000-----------------------------

The solo at this point is, like all of the
other solos on this album, random and frenzied.
It's basically just a bunch of high pitched tremolo
notes.  Play Riff H under the solo.

Riff I
---------------
---------------
---------------
---------------
--2~-----------
--0~-----------

Order:
Bass Riff
Riff A x2
Riff B x12
Riff C x8
Riff D x4
Riff C x4
Riff D x4
Riff C x4
Riff D x4
Riff E x1
Riff D x8
Riff C x4
Riff D x4
Riff F x1
Riff G x1
Riff H x23
Riff D x4
Riff C x4
Riff D x4
Riff I x1
Comments