Mayer John - Your Body Is A Wonderland Chords & Tabs

 

Your Body Is A Wonderland Chords & Tabs

Mayer John Chords & Tabs

Version: 7 Type: Tab 0 ratings
1 star 2 stars 3 stars 4 stars 5 stars
comments

Your Body Is A Wonderland Tab

##################################################################################
# This file is the author's own work and represents their interpretation of the  #
# song. You may only use this file for private study, scholarship, or research.  #
##################################################################################

Your Body is a Wonderland - By: John Mayer
Transcribed by: Jamie House

intro/Verse1:

e--------------------------------------------------------------------
B--------------------------------------------------------------------
G----10---10---10---10---10---10---10---10---------------------------
D----10---10---10---10---10---10---10---10---------------------------
A--8-----------------------------------------------------------------
E------------8---------6---------8-----------------------------------
        t         t         t         t

pre-chorus
[ Tab from: http://www.guitartabs.cc/tabs/m/mayer_john/your_body_is_a_wonderland_tab_ver_7.html ]
e--------------------------------------------------------------------
B----10----8----8----8----10----8----8----8--------------------------
G----10---10---10---10----10---10---10---10-------  REPEAT 2X  ------
D--------------------------------------------------------------------
A--------------------------------------------------------------------
E--6--------------6-----8--------------8-----------------------------
        t                    t

e--------------------------------------------------------------------
B-----3------------5------------6------------8-----------------------
G-----3------------5------------7------------9-----------------------
D--------------------------------------------------------------------
A--------------------------------------------------------------------
E--3-------3----5-------5----6-------6----8-------8------------------
t      t   t            t

Chorus/Verse2:

e--------------------------------------------------------------------
B----10---10---10---10---10---10---10---10---------------------------
G----10---10---10---10---10---10---10---10---------------------------
D--------------------------------------------------------------------
A--8-----------------------------------------------------------------
E------------8---------6---------8-----------------------------------
        t         t         t         t


________________________________

There is more to this song, I have to figure it out still. I will update as 
soon as I find more info....

Peace-----  Jamie Hous
Comments