Mayer John - Your Body Is A Wonderland Chords & Tabs

 

Your Body Is A Wonderland Chords & Tabs

Mayer John Chords & Tabs

Version: 2 Type: Tab 3 ratings
1 star 2 stars 3 stars 4 stars 5 stars
comments

Your Body Is A Wonderland Tab

**capo V**
[ Tab from: http://www.guitartabs.cc/tabs/m/mayer_john/your_body_is_a_wonderland_tab_ver_2.html ]
verse
e-----------------------------------------|--e
b-----6--6----6--6-----6--6-----6----0^6--|--b
g-----0--0----0--0-----0--0-----0----0----|--g
d-----------------------------------------|--d
a--8--------------------------------------|--a
E----------8--------6--------8------------|--E

'cuz if u want love..'
e--------------0--|--e
b-----8--6--6--6--|--b
g-----0--0--0-----|--g
d-----------------|--d
a--8--8--8--8-----|--a
E-----------------|--E

for 'your body is a wonderland...' part..play same riff as verse

havent got the bridge yet..
but am working on it..
*





Comments