Mayer John - Your Body Is A Wonderland Solo Chords & Tabs

 

Your Body Is A Wonderland Solo Chords & Tabs

Mayer John Chords & Tabs

Version: 1 Type: Tab 2 ratings
1 star 2 stars 3 stars 4 stars 5 stars
comments

Your Body Is A Wonderland Solo Tab

Your Body Is A Wonderland Solo
Tabbed by Phillip Hall


E---12--------------------------------------------12-----------------------------------------------------
B-------13--9/10--8--6--6/8--10--8--------------------13---9/10--15--12------------------------------
G---12--------------------------------------------12----------------------------------------------------
D-------13--9/10--8--6--6/8--10--8--------------------13---9/10--15--12-----------------------------
A---------------------------------------------------------------------------------------------------------
E----------------------------------------------------------------------------------------------------------

[ Tab from: http://www.guitartabs.cc/tabs/m/mayer_john/your_body_is_a_wonderland_solo_tab.html ]
E---12---------------------------------------------12-------------15---12--------------------------
B-------13--9/10--8--6--6/8--10--8---------------------13---9/10---------------------------------------
G---12---------------------------------------------12-------------15---12-------------------------
D-------13--9/10--8--6--6/8--10--8---------------------13---9/10--------------------------------------
A---------------------------------------------------------------------------------------------------------
E----------------------------------------------------------------------------------------------------------



Enjoy it, this is my first tab and I hope I didn’t make any mistakes. I hate wrong tabs just as much as the next person.
Comments