Mayer John - Wheel Chords & Tabs

 

Wheel Chords & Tabs

Mayer John Chords & Tabs

Version: 1 Type: Tab 0 ratings
1 star 2 stars 3 stars 4 stars 5 stars
comments

Wheel Tab

   
##################################################################################
# This file is the author's own work and represents their interpretation of the  #
# song. You may only use this file for private study, scholarship, or research.  #
##################################################################################

"Wheel" by John Mayer



A. Intro/Verse

    people  have the right  to  fly

E:--8---10----8--10----8---8----10---
B:--8---10-------------8--/10---10---
G:-----------------------------------  X2
D:--0--------------------------------
A:------8--------------0---------8---
E:-----------------------------------


B.
[ Tab from: http://www.guitartabs.cc/tabs/m/mayer_john/wheel_tab.html ]
just a season thing....        just this thing  the  seasons  do
E:------------------------------------------------------------------
B:-----6----6-------6---6--------------------3--------------3--1----
G:-----5----5-/7----7---5-/7----5--- 5-------3--------3-----3--2--3-
D:------------------------------7---/8----------------3-----------3-
A:------------------------------------------------------------------
E:---6---6-------6----6------6----6-------3-----3--3-----3----------


C. Chorus

that's the way this wheel keeps working now
E:---------8--------------------------------------
B:---------8---------6------------5-/6----6-------
G:-------------------5------------5-------5-------  X2
D:------------------------------------------------
A:---------8---------5------------3---------------
E:----------------------------------------6-------

(part D is the same as C except that the 2nd and 
3rd chords are switched) 


***Tabbed by Chris Woodward (C07chris.woodward@usafa.edu)***
Comments