Mayer John - Sucker Chords & Tabs

 

Sucker Chords & Tabs

Mayer John Chords & Tabs

Version: 1 Type: Tab 2 ratings
1 star 2 stars 3 stars 4 stars 5 stars
comments

Sucker Tab

Sucker (John Mayer) 
Transcribed by Catherine Gagné 

Intro

e---7b--7b------ ----------------------- 
b---8b--8b------ ------9-----9--12---5-- 
g-----------9--- ------9-----9--11---7-- 
d--------------- ------9-----9---9---7-- 
a--------------- ----------------------- 
e--------------- ---0-----0----------7-- 

e----------------------0------0--------------------------------0--------0-
b---9------9---12---5------5----------------------9--12----5--------5-----
g---9------9---11---7------7----------------------9--11----7--------7-----
d---9------9----9---7------7----------------------9---9----7--------7-----
a-------------------------------------/7----------------------------------
e---0---0-----------7------7------0h3-----0----0-----------7--------7-----


Part 1 

Verse 

e-------------------0------0------------------- 
b---9--12--12----5------5----------9----------- 
g---9--11--11----7------7----------9----------- 
d---9---9---9----7------7----------9---(etc..)- 
a---------------------------------------------- 
e---0---0--------7------7-------0--0----------- 

Part 2 
[ Tab from: http://www.guitartabs.cc/tabs/m/mayer_john/sucker_tab.html ]
e--------------------4-----------
b---5---4---7---2----2--(2)---0---
g---6---5---9---3----2--(2)---2---
d---5---4---9---2----x--(2)---1---
a---x---x---x---x----x--(x)---2---
e---5---4---9---2----2--------x---

Part 3 

e----------------------------------------9------------------- 
b---4--5--4--5----9---9----4--5--4--5---10---9---4------5--4- 
g---4--4--4--4----9--11----4--4--4--4----9---9---4------4--4- 
d---2--2--2--2----9---9----2--2--2--2---11---9---4----4------ 
a---0--0--0--0----x---x----0--0--0--0----9--11---2--2-------- 
e-----------------0--10-------------------------------------- 

Part 4 

e-------------------------------------- 
b---9---9---9---------9---9----2---5--- 
g---9--11--10--------11--10----2---6--- 
d---9---9---9-----9-------9----2---7--- 
a---x---x---x-------------------------- 
e---0--10---9---9---------9----2---7--- 

Part 5 

e---------------0-------------------------- 
b---3---2---5---0---3-----10--10---3---5--- 
g---4---3---7---1---5-----12--11---3---6--- 
d---3---2---7---0---5-----10--10---3---7--- 
a---x---x---x---2---x--------------x---x--- 
e---3---2---7---0---5---10---------3---7--- 

Part 6 

e------------------------------------ 
b---2---5---4---7----2---5----------- 
g---2---6---4---8----2---6----------- 
d---2---7---4---9----2---7---(...)--- 
a---x---x---x---x----x---x----------- 
e---2---7---4---9----2---7----------- 
Comments