Mayer John - Only Heart Chords & Tabs

 

Only Heart Chords & Tabs

Mayer John Chords & Tabs

Version: 1 Type: Tab 1 rating
1 star 2 stars 3 stars 4 stars 5 stars
comments

Only Heart Tab

   
Intro (Gtr. 1): (x2)
e-----6--------6--------6----------|
b--------8--------8----------------|
g--7---------7-------7-------------|
d----------------------------------|
a----------------------------------|
e----------------------------------|
[ Tab from: http://www.guitartabs.cc/tabs/m/mayer_john/only_heart_tab.html ]
e----- 6--------6--------6---------|
b------ --8--------8---------------|
g--7/8--------8-------8------------|
d----------------------------------|
a----------------------------------|
e----------------------------------|
 
 e----- 6--------6--------6--------|
b--------  8--------8--------------|
g--8/10------10-------10-----------|
d----------------------------------|
a----------------------------------|
e----------------------------------|

e-----------8-----------8---------8|
b--------------10----------10------|
g--10h8/10---------10---------10---|
d----------------------------------|
a----------------------------------|
e----------------------------------|

Intro: (Gtr. 2): (x2)
Chords: Gm/Cm/F

Verse: (Gtr. 2):
Chords: Gm/Cm/F

Chorus: Bm/Em/A
Comments