Mayer John - Not Myself Chords & Tabs

 

Not Myself Chords & Tabs

Mayer John Chords & Tabs

Version: 1 Type: Tab 1 rating
1 star 2 stars 3 stars 4 stars 5 stars
comments

Not Myself Tab

##################################################################################
# This file is the author's own work and represents their interpretation of the  #
# song. You may only use this file for private study, scholarship, or research.  #
##################################################################################

Not myself 
transcribed by Catherine Gagné 
Edited to be easy by  Ryan DeMarsh (rdemarsh01@hotmail.com)
Capo first fret


Intro 

e---3---2---0---0--- 
b---3---3---8---8--- 
g---0---0---0---0--- 
d---0---0---7---x---                   G    D/F#      F          C
a---x---x---8---7--- 
e---3---2---x---8--- 


Part 1 

Verse 

e---3---2---0---0-- ---3---2---0---x--- 
b---3---3---8---8-- ---3---3---8--(8)-- 
g---0---0---0---0-- ---0---0---0---0--- 
d---0---0---7---x-- ---0---0---7---7--- 
a---x---x---8---7-- ---x---x---8---8--- 
e---3---2---x---8-- ---3---2---x---6--- 


Part 2 

Chorus 

e---3--2--3--2---3--2--3--2---0---0--(2)--- 
b---3--3--3--3---3--3--3--3---3---3--(3)--- 
g---0--0--0--0---0--0--0--0---0---0--(0)--- 
d---0--0--0--0---x--x--x--x---4---x--(x)---          G    Cadd9  D   Cadd9  :|  
a---x--x--x--x---3--3--3--3---5---3--(3)--- 
e---3--3--3--3----------------------------- 
                                     
On the album, (x3x032) = (x3x033) 


Part 3 
 
Don't forget that the chords are relative to the capo. 12 means 13..
[ Tab from: http://www.guitartabs.cc/tabs/m/mayer_john/not_myself_tab.html ]
e-------------------------------------------------
b-------------15-----------10h12p10-----------8--- 
g----------12--0--------11-------11--------9------
d-------14-------------------------------10------- 
a-----------------------12--------------x--------- 
e---12---------------10---------------8----------- 


Part 4 

e----------------------3-------------------- 
b---8---5--10------3---3--------------------
g---7---4---9------0---0-------------------- 
d---7---4---9------x---0---(back to intro)--
a---x---x---x------3---x--------------------
e---7---4---9----------3-------------------- 


solo

e--------------------------------------------------------------------------------------------------
b--------------------------------------------------------------------------------------------------
g--------------------------------------------------------------------------------------------------
d-------0--5---/9~------7s9--9s7~-----7s9-9s7p5---/10-10-8s9-9s7p5----5h7---------------------5----
a-----7--------------5--------------5-------------------------------7-----5h7~--5h7p5-------5------
e---8----------------------------------------------------------------------------------5h7---------

e-------------------------------------
b-------8---8--7--3----8--6---/6--5---
g-------------------------------------
d---7s9-----9--7--4----9--7---/7--5---
a-------------------------------------
e-------------------------------------


Part 5 

e---------------- 
b---------------- 
g---------------- 
d-------------3-- 
a-------3--6----- 
e---/4----------- 


Part 6 

(live) 

e---2--0--5---------- 
b---3--3--3---------- 
g---0--0--0---------- 
d---0--0--0---(x2)--- 
a---x--x--x---------- 
e---3--3--3---------- 
Comments