Mayer John - Daughters Chords & Tabs

 

Daughters Chords & Tabs

Mayer John Chords & Tabs

Version: 1 Type: Chords 7 ratings
1 star 2 stars 3 stars 4 stars 5 stars
comments

Daughters Chords

Daughters
John Mayer
Transcribed by Tyler Hartley

Part 1: Intro/1st and 2nd verses

e---0----0----0----------------
b---0----0----0----0-----------
g---7----7----7----7---(7-9)---
d---7----5----5----4---(5-7)---
a---x----7----x----5---(7-9)---
e---7----0----5----------------

I find it easiest if you play the bass e string notes with
your thumb wrapped around the neck, but it's up to you.

Also, the tab in parentheses is what John plays on some 
verses; I suggest listening to the album to figure out 
when. It's kindof up to you.


Part 2: Chorus/"On behalf of every man..."

e---0---0---0-------
b---0---0---0---0---
g---7---7---7---7---
d---7---6---5---4---
a---x---7---x---5---
e---7---0---5-------


Part 3: 3rd verse (played percussively)
[ Tab from: http://www.guitartabs.cc/tabs/m/mayer_john/daughters_crd.html ]
e-----------------------------------------------------
b-----------------------------------------------------
g---7--(7-7-7)---7--(7-7-7)---7--(7-7-7)---7---7--9---
d---9--(9-x-9)---5--(5-5-5)---5--(7-x-7)---4---5--7---
a---x--(x-9-x)---7--(7-x-7)---x--(x-7-x)---5---7--9---
e---7--(7---7)---x--(x-7-x)---5--(5---5)--------------


Part 4: Bridge "Boys you can break..."

e--------0------------- ----------0---
b---10---8---7-(8)-7--- ---7--5---5---
g----9---9---7-(7)-7--- ---6--6---7---
d---10---8---7-(9)-7--- ---5--5---7---
a----x----------------- ---x--x---x---
e---10----------------- ----------7---
                             

Part 5: "Boys will be strong..."

e---0---0---5-----------------------------------
b---3---3---3---2--3--5--7----------------------
g---0---2---3---0--0--0--0----------------------
d---2---0---3---2--4--5--7---(back to chorus)---
a---2---x---x---0--0--0--0----------------------
e---0---2---3-----------------------------------

Comments