Mayer John - Comfortable Chords & Tabs

 

Comfortable Chords & Tabs

Mayer John Chords & Tabs

Version: 2 Type: Tab 0 ratings
1 star 2 stars 3 stars 4 stars 5 stars
comments

Comfortable Tab

##################################################################################
# This file is the author's own work and represents their interpretation of the  #
# song. You may only use this file for private study, scholarship, or research.  #
##################################################################################

his is a little easier than the first tab, still sounds 
good in my opinion.  I tried to make all the words be in 
sync with the playing the best I could.

/////////////////////////////////////////////////////////
Capo 3
Standard Tuning
/////////////////////////////////////////////////////////


INTRO (same as verses)


e|--0h2------2--0----------0----2--3---2p0---|
B|--3--------3--------3----3-----------------|
G|--2--------2-------------0-----------------|
D|--0--------0-------------2-----------------|
A|-------------------------1-----------------|
E|-------------------------------------------|


e|--0h2--------2----0------0------2--3p2-2-0---------|
B|--3----------3-------3---1-------------1---3-------|
G|--0----------0-----------0-------------2--------0--|
D|--0----------0-----------2-------------0--------0--|
A|--2----------2----------------------------------0--|
E|------------------------------------------------3--|


e|-------------------------------|
B|--0----2-----3-----0----2---3--|
G|--0----2-----4-----0----2---4--|
D|--0----2-----4-----0----2---4--|
A|-------------------------------|
E|----------------0--------------|



/////////////////////////////////////////////////////////

VERSE 1


 

e|--0h2------2--0----------0----2--3---2p0---|
B|--3--------3--------3----3-----------------|
G|--2--------2-------------0-----------------|
D|--0--------0-------------2-----------------|
A|-------------------------1-----------------|
E|-------------------------------------------|



   

e|--0h2--------2----0------0------2--3p2-2-0---------|
B|--3----------3-------3---1-------------1---3-------|
G|--0----------0-----------0-------------2--------0--|
D|--0----------0-----------2-------------0--------0--|
A|--2----------2----------------------------------0--|
E|------------------------------------------------3--|



   

e|-------------------------------|
B|--0----2-----3-----0----2---3--|
G|--0----2-----4-----0----2---4--|
D|--0----2-----4-----0----2---4--|
A|-------------------------------|
E|----------------0--------------|



   

e|--0h2----------2----0--------0---2----3--2p0---|
B|--3------------3--------3----3-----------------|
G|--2------------2-------------0-----------------|
D|--0------------0-------------2-----------------|
A|-----------------------------1-----------------|
E|-----------------------------------------------|



   

e|--0h2-------2--0---0----2----3p2-2--0-----|
B|--3---------3----3-1-------------1---3----|
G|--0---------0------0-------------2-----0--|
D|--0---------0------2-------------0-----0--|
A|--2---------2--------------------------0--|
E|---------------------------------------3--|



   

e|---------------------------------2----0----2----0--2--|
B|--0----2-----3-----0---2---3-----3----3----3----1--1--|
G|--0----2-----4-----0---2---4-----2----0----0----0--2--|
D|--0----2-----4-----0---2---4-----0----2----0----2--0--|
A|--------------------------------------1----2----------|
E|----------------0-------------------------------------|
                                   \______strum______/ 


   

e|--3-------0--0--------------3-------------0--0--|
B|--3-------3--2--------------3-------------3--2--|
G|--0-------2--2--------------0-------------2--2--|
D|--0-------2--2--------------0-------------2--2--|
A|--0-------0--0--------------0-------------0--0--|
E|--3--------*----------------3--------------*----|
   (All strum)    
             *I like to play these by sliding 
                                    from the 3 to the 2       


  

e|--------------3------------0----0------------|
B|--------------3------------3----2------------|
G|--------------0------------2----2---------4--|
D|--------------0------------2----2---------4--|
A|--------------0------------0----0---------x--|
E|--------------3--------------*------------4--|
   (All strum)




///////////////////////////////////////////////////////


CHORUS 1


      "Our love was   comfortable and   so broken in"

e|--2---------------0-----------------2-----------0----0--|
B|--3---------------3-----------------3-----------3----2--|
G|--2---------------2-----------------0-----------2----2--|
D|--0---------------0-----------------0-----------2----2--|
A|------------------2-----------------0-------------------|
E|------------------------------------3-------------------|


///////////////////////////////////////////////////////


VERSE 2


 

e|--0h2-------------2---0--------0-----2--3----2p0---|
B|--3---------------3--------3---3-------------------|
G|--2---------------2------------0-------------------|
D|--0---------------0------------2-------------------|
A|-------------------------------1-------------------|
E|---------------------------------------------------|



 

e|---0h2-----------2-----0------------0--2--3p2-2-0---------|
B|---3-------------3------------3-----1---------1----3------|
G|---0-------------0------------------0---------2--------0--|
D|---0-------------0------------------2---------0--------0--|
A|---2-------------2-------------------------------------0--|
E|-------------------------------------------------------3--|



   

e|--------------------------------|
B|--0----2-----3-----0----2----3--|
G|--0----2-----4-----0----2----4--|
D|--0----2-----4-----0----2----4--|
A|--------------------------------|
E|----------------0---------------|


[ Tab from: http://www.guitartabs.cc/tabs/m/mayer_john/comfortable_tab_ver_2.html ]
   

e|--0h2----------2-0------0---2----3---2p0---|
B|--3------------3-----3--3------------------|
G|--2------------2--------0------------------|
D|--0------------0--------2------------------|
A|------------------------1------------------|
E|-------------------------------------------|



      

e|--0h2-------2----0------0---2---3p2-2--0-----|
B|--3---------3---------3-1-----------1---3----|
G|--0---------0-----------0-----------2-----0--|
D|--0---------0-----------2-----------0-----0--|
A|--2---------2-----------------------------0--|
E|------------------------------------------3--|



   

e|------------------------------|
B|--0----2-----3-----0---2---3--|
G|--0----2-----4-----0---2---4--|
D|--0----2-----4-----0---2---4--|
A|------------------------------|
E|----------------0-------------|
                             



e|--3-----------0--0------------3----------------0--0--|
B|--3-----------3--2------------3----------------3--2--|
G|--0-----------2--2------------0----------------2--2--|
D|--0-----------2--2------------0----------------2--2--|
A|--0-----------0--0------------0----------------0--0--|
E|--3------------*--------------3-----------------*----|
   (All strum)    
                 *I like to play these by sliding 
                                    from the 3 to the 2       


  

e|--------3-----------0---0-------------------|
B|--------3-----------3---2-------------------|
G|--------0-----------2---2----------------4--|
D|--------0-----------2---2----------------4--|
A|--------0-----------0---0----------------x--|
E|--------3-------------*------------------4--|
   (All strum)


///////////////////////////////////////////////////////


Chorus 2


      "Our love was...comfortable and...so broken in"

e|--2---------------0-----------------2-----------0----0--|
B|--3---------------3-----------------3-----------3----2--|
G|--2---------------2-----------------0-----------2----2--|
D|--0---------------0-----------------0-----------2----2--|
A|------------------2-----------------0-------------------|
E|------------------------------------3-------------------|


     "She's perfect...so flawless..."

e|--2---------------0-------------1--|
B|--3---------------3-------------1--|
G|--2---------------2-------------0--|
D|--0---------------0-------------3--|
A|------------------2----------------|
E|-----------------------------------|


     "or so they sa-ay hey-ey sa-ay hey-ey"

e|-------0-------0--0--3---0--0--0--3---0--|
B|-------1-------3--0--3---2--3--0--3---2--|
G|-------0-------2--1--0---3--2--1--0---3--|
D|-------2-------0--0--0---2--0--0--0---2--|
A|---------------2--2--x---0--2--2--x---0--|
E|------------------0--3---3-----0--3---3--|

  (interlude)

e|--3--2--0---------------------|
B|------------------------------|
G|------------------------------|
D|-------------------------0-2--|
A|-------------------0-1-3------|
E|-------------0-2-3------------|


///////////////////////////////////////////////////////


Verse 3


 

e|--0h2-------------2---0--------0-----2--3----2p0---|
B|--3---------------3--------3---3-------------------|
G|--2---------------2------------0-------------------|
D|--0---------------0------------2-------------------|
A|-------------------------------1-------------------|
E|---------------------------------------------------|



 

e|---0h2-----------2-0--------0------2-3p2-2-0---------|
B|---3-------------3-----3----1------------1----3------|
G|---0-------------0----------0------------2--------0--|
D|---0-------------0----------2------------0--------0--|
A|---2-------------2--------------------------------0--|
E|--------------------------------------------------3--|



   

e|--------------------------------------|
B|--0----2-----3-----0----2----3--------|
G|--0----2-----4-----0----2----4--------|
D|--0----2-----4-----0----2----4--------|
A|--------------------------------------|
E|----------------0------------------3--|


   

e|-------0-----2-----0----2--3--|
B|--3----3-----3-----3----3--3--|
G|--0----0-----0-----0----0--0--|
D|--0----2-----2-----2----2--2--|
A|------------------------------|
E|----------------0-------------|
   

///////////////////////////////////////////////////////


Chorus 3


      "Our love was...comfortable and...so broken in"

e|--2---------------0-----------------2-----------0----0--|
B|--3---------------3-----------------3-----------3----2--|
G|--2---------------2-----------------0-----------2----2--|
D|--0---------------0-----------------0-----------2----2--|
A|------------------2-----------------0-------------------|
E|------------------------------------3-------------------|


     "She's perfect...so flawless..."

e|--2---------------0-------------1--|
B|--3---------------3-------------1--|
G|--2---------------2-------------0--|
D|--0---------------0-------------3--|
A|------------------2----------------|
E|-----------------------------------|


 "I'm not impre-essed   I want you ba-aa-aa-ack

e|----0-----0---0-----1---0--------0--0--3--0--|
B|----1-----3---0-----1---1--------3--0--3--2--|
G|----0-----2---1-----0---0--------2--1--0--3--|
D|----2-----0---0-----3---2--------0--0--0--2--|
A|----------2---2------------------2--2--x--0--|
E|--------------0---------------------0--3--3--|


///////////////////////////////////////////////////////


Outro (slower tempo)


e|--0h2--2-0---0-----0h2--2-0---0----0----0--|
B|--3----3---3-3-----3----3---3-3----2----3--|
G|--2----2-----0-----2----2-----0----0----2--|
D|--0----0-----2-----0----0-----2----2----0--|
A|-------------1----------------1----0----0--|
E|----------------------------------------2--|



And that's "it', once learned, it's very fun to play.
Comments