Maximo Park - Graffiti Chords & Tabs

 

Graffiti Chords & Tabs

Maximo Park Chords & Tabs

Version: 1 Type: Tab 0 ratings
1 star 2 stars 3 stars 4 stars 5 stars
comments

Graffiti Tab

   
Some parts might be wrong so please correct me, this is just the basic structure of the 
someone also figure out the solo?

Intro:
B5
just repeat this one chord until the main riff comes in

Verse:
Play once through then vocal comes in
"Well thats enough..."
--------------------------------------------------------------0-0-0-0-0-0-0-0-|
--------------------3-3-3-3-3-3-3-----------------------------0-0-0-0-0-0-0-0-|
----------7-9-9-7-6-4-4-4-4-4-4-4--9-7-6-6-6-6-6-6-6-6--------1-1-1-1-1-1-1-1-|
--9-9-7-9-7-9-9-7-6-4-4-4-4-4-4-4--9-7-6-7-7-7-7-7-7-7--7-6-4-2-2-2-2-2-2-2-2-|
--9-9-7-9-5-7-7-5-4-2-2-2-2-2-2-2--7-5-4-7-7-7-7-7-7-7--7-6-4-2-2-2-2-2-2-2-2-|
--7-7-5-7--------------------------------5-5-5-5-5-5-5--5-4-2-0-0-0-0-0-0-0-0-|
Repeat throughout verse
[ Tab from: http://www.guitartabs.cc/tabs/m/maximo_park/graffiti_tab.html ]
Chorus:
    "I'l do graffiti...."
------------------------------------------------------------|
------------------------------------------------------------|
--9-9-9-9-9-9-9-9-9-9-11-11-11--6-6-6-6-6-6-6-6-6-----------|
--9-9-9-9-9-9-9-9-9-9-11-11-11--6-6-6-6-6-6-6-6-6-9--9--9---|
--7-7-7-7-7-7-7-7-7-7-9 -9 -9 --4-4-4-4-4-4-4-4-4-9--9--9---|
--------------------------------------------------7--7--7---|
Play this twice

  "Mind your mouth..."
-------------------------------0-0-0-0-0-0-0-0-|
-------------------------------0-0-0-0-0-0-0-0-|
-------------------------------1-1-1-1-1-1-1-1-|
--7--9--9-9-9-9-9-9-9-9--7--9--2-2-2-2-2-2-2-2-|
--7--9--9-9-9-9-9-9-9-9--7--9--2-2-2-2-2-2-2-2-|
--5--7--7-7-7-7-7-7-7-7--5--7--0-0-0-0-0-0-0-0-|

 "Take care..."
------------------------------------------------------------------------------|
------------------------------------------------------------------------------|
---------9---8--8-8-8-8-8-8-8-8--9-9-9-9-11-11-11-11-13-13-13-13-13-13-13-13--|
--7---9--9---8--8-8-8-8-8-8-8-8--9-9-9-9-11-11-11-11-13-13-13-13-13-13-13-13--|
--7---9--7---6--6-6-6-6-6-6-6-6--7-7-7-7-9 -9 -9 -9 -11-11-11-11-11-11-11-11--|
--5---7-----------------------------------------------------------------------|
Comments