Maximo Park - Going Missing Chords & Tabs

 

Going Missing Chords & Tabs

Maximo Park Chords & Tabs

Version: 2 Type: Tab 0 ratings
1 star 2 stars 3 stars 4 stars 5 stars
comments

Going Missing Tab

   
-------------------------------------------------------------------------------
			     Going Missing - Maximo paRK
-------------------------------------------------------------------------------
Tabbed by:jimbo
Email:jimbo_garside80@hotmail.com

choon!

Tuning: standard

 intro/outro + verses 1+2

e|---------------------------------------------------------------------------|
B|---------------------------------------------------------------------------|
G|---------------------------------------------------7--7--7-----------------|
D|----9-----7---7--7--7----------------------9----7--------------------------|
A|--7---7\5---5--5--5-------9---7--7--7--5/7--7\5---5--5--5-----9--9--7------|
E|----------------------5/7---5--5--5-----------------------5/7--------------|

e|---------------------------------------------------------------------------|
B|---------------------------------------------------------------------------|
G|---------------------------------------------------------------------------|
D|---------------------------------------------------------------------------|
A|----7--7--7----------------------------------------------------------------|
E|--5--5--5------------------------------------------------------------------|


 bridge * 2

  "this can't go on.........regret  it regret it"
e|---------------------------------------------------------------------------|
B|----------1----------3-----------------------12 12 12 12 12----------------|
G|-------0-----------0-----777777777777777-- --12 12 12 12 12 --------------|
D|----2-----------0--------777777777777777-----12 12 12 12 12---------------|
A|--3----------------------555555555555555----------------------------------|
E|------------3-------------------------------------------------------------|

chorus

  "im going missing..for a .......while iv got.... left to.... lose, whooaa"
e|---------------------------------------------------------------------------|
B|------------------1212121212-------------------1212121212----------------- |
G|--777777777777----1212121212--777777777777-----1212121212---55555555------ |
D|--777777777777----1212121212--777777777777-----1212121212---55555555------ |
A|--555555555555----------------555555555555------------------33333333-------|
E|--------------------------------------------------------------------------|
[ Tab from: http://www.guitartabs.cc/tabs/m/maximo_park/going_missing_tab_ver_2.html ]
  "il listen to... anything"
e|---------------------------------------------------------------------------|
B|--1212121212---------------------------------------------------------------|
G|--1212121212---77777777777-------------------------------------------------|
D|--1212121212---77777777777------------------------------------------------|
A|---------------555555555555------------------------------------------------|
E|---------------------------------------------------------------------------|

  verse3

                                do you ever want to wear your body out ....
e|---------------------------------------------------------------------------|
B|---------------------------------------------------------------------------|
G|---------------------------------------------------------------------------|
D|---------------------------------------------------------------------------|
A|--333---55555---333-- 55555---333---55555---333---55555---333---55555------|
E|--111-0-33333-0-111-0-33333-0-111-0-33333-0-111-0-33333-0-111-0-33333-0----|

  "too soon again..."
e|---------------------------------------------------------------------------|
B|-----------------------------1212121212------------------------------------|
G|----------------777777777777-1212121212------------------------------------|
D|----------------777777777777-1212121212------------------------------------|
A|--333---55555---555555555555-----------------------------------------------|
E|--111-0-33333--------------------------------------------------------------|

chorus

  "im going missing..for a .......while iv got.... left to.... lose, whooaa"
e|---------------------------------------------------------------------------|
B|------------------1212121212-------------------1212121212----------------- |
G|--777777777777----1212121212--777777777777-----1212121212---55555555------ |
D|--777777777777----1212121212--777777777777-----1212121212---55555555------ |
A|--555555555555----------------555555555555------------------33333333-------|
E|--------------------------------------------------------------------------|

"ill listen to... anything"
e|---------------------------------------------------------------------------|
B|--1212121212---------------------------------------------------------------|
G|--1212121212---7777777777777777777777777777777777777-555555555555/9-77-----|
D|--1212121212---7777777777777777777777777777777777777-555555555555/9-77-----|
A|---------------5555555555555555555555555555555555555-333333333333/7-55-----|
E|-------------------------------------------------------------------------



| /  slide up
| \  slide down
| h  hammer-on
| p  pull-off
| ~  vibrato
| +  harmonic
| x  Mute note
===============================================================================
Comments