Maximo Park - Going Missing Chords & Tabs

 

Going Missing Chords & Tabs

Maximo Park Chords & Tabs

Version: 1 Type: Tab 0 ratings
1 star 2 stars 3 stars 4 stars 5 stars
comments

Going Missing Tab

intro
e------------------------------------------------------------------------|
b------------------------------------------------------------------------|
g------------------------------------------------------------------------|
d---9---7----7---7---7---7---7-------------------------------------------|
a-7---5----5---5---5---5---5---------9---7---7---7---7---7---7-----------|
d--------------------------------0-7---5---5---5---5---5---5-------------|
[ Tab from: http://www.guitartabs.cc/tabs/m/maximo_park/going_missing_tab.html ]
verse
e------------------------------------------------------------------------|
b------------------------------------------------------------------------|
g------------------------------------------------------------------------|
d---9---7----7---7---7---7---7-------------------------------------------|
a-7---5----5---5---5---5---5---------9---7---7---7---7---7---7-----------|
d--------------------------------0-7---5---5---5---5---5---5-------------|

pre-chorus?

chorus?
Comments