Maximo Park - Coast Is Always Changing Chords & Tabs

 

Coast Is Always Changing Chords & Tabs

Maximo Park Chords & Tabs

Version: 2 Type: Tab 0 ratings
1 star 2 stars 3 stars 4 stars 5 stars
comments

Coast Is Always Changing Tab

Coast Is Always Changing
Maximo Park
A Certain Trigger
Guitar Tab

Tabbed by: Milly
Email: lushhhhh@hotmail.com

Tuning: standard tuning

Intro
e|------------------------0-0-------------|
B|----------------------------3-2-3-3-2---|
G|------4-4-2--1-2-2-1--2-----------------|
D|--2-2-----------------------------------|
A|----------------------------------------|
E|----------------------------------------|
										  On the 4th
Verse (comes in at 0.10)						 time end with
e|---------------------------|-4-----2-----|5-4-----2-----| |--5-4-2-4-2--|
B|--5-----4-----5-----4------|---5-----4---|----5-----4---|  |-------------|
G|----4-----4-----4-----4----|-----4-----4-|------4-----4-|  |-------------|
D|------6-----6-----6-----6--|-------------|--------------|  |-------------|
A|---------------------------|-------------|--------------|  |-------------|
E|---------------------------|-------------|--------------|  |-------------|

	Or you can do this if you find it easier
[ Tab from: http://www.guitartabs.cc/tabs/m/maximo_park/coast_is_always_changing_tab_ver_2.html ]
e|---------------------------|----------------------------|
B|--5-----4-----5-----4------|-9----7-----10-9-----7------|
G|----4-----4-----4-----4----|---9----8--------9-----8----|
D|------6-----6-----6-----6--|-----9----9--------9-----9--|
A|---------------------------|----------------------------|
E|---------------------------|----------------------------|

Then 'I am young and I am lost' (0.32)

e|--7--7--5--2--7--7--7--2--|--5--2--5--4---| This repeats |--9---7--|
B|--9--7--5--4--9--7--9--4--|--5--4--5--4---| twice and     |--9---7--|
G|--9--8--6--4--9--8--9--4--|--6--4--6--4---| leads into     |--9---8--|
D|--9--9--7--4--9--9--9--4--|--7--4--7--6---| the next       |--11--9--|
A|--7--9--7--2--7--9--7--2--|--7--2--7--6---| part with:     |--11--9--|
E|--7--7--5--2--7--7--7--2--|--5--2--5--4---|		       |--9---7--|


We look out, apon, the sea.

e|--9---9---4--4--7--7----|--4--7--|
B|--9---9---4--4--7--7----|--4--7--|
G|--9---9---4--4--8--8----|--4--8--|
D|--11--11--6--6--9--9----|--6--9--|
A|--11--11--6--6--9--9----|--6--9--|
E|--9---9---4--4--7--7----|--4--7--|

Chorus
e|--9--9--9--9--4-4-4-4-4-4-4-4-5-5-4-4------------|
B|--9--9--9--9--4-4-4-4-4-4-4-4-5-5-4-4------------|
G|--9--9--9--9--4-4-4-4-4-4-4-4-6-6-4-4------------|
D|--11-11-11-11-6-6-6-6-6-6-6-6-7-7-6-6------------|
A|--11-11-11-11-6-6-6-6-6-6-6-6-7-7-6-6------------|
E|--9--9--9--9--4-4-4-4-4-4-4-4-5-5-4-4------------|


This is a great song, I've tabbed the bass part for it too
Any comments or corrections feel free to email me

Thanku please rate! :-)
Comments