Maxeen - Please Chords & Tabs

 

Please Chords & Tabs

Maxeen Chords & Tabs

Version: 1 Type: Tab 0 ratings
1 star 2 stars 3 stars 4 stars 5 stars
comments

Please Tab

----------------------------------------------------------------------------
			     PLEASE - Maxeen
----------------------------------------------------------------------------
Tabbed by: Kyle
Email: K_Feldpausch@yahoo.com

Tuning:Standard

This song is off the 2004 Warped tour compilation CD. Listen to song for timing and
stuff. im pretty new at transcribing songs, but i think that this is pretty close

p.m.- palm mute
b - bend
pb- pre-bend
br- bend and release
pbr- pre-bend and release
/ - slide up
\ - slide down
h - hammer on
p- pull off
~ - shake

Intro 2x
e|--------------------------------------------------------------------|
B|--------------------------------------------------------------------|
G|-------------------------------------------------3-0----------------|
D|---------3-5-------------3-5-------------3-5---------3-0------------|
A|---3-5-------------3-5-------------3-5-------------------3-5--------|
E|-3-----3-----3-3-3-----3-----3-3-3-----3-----3-3-------------3-3----|

Before Verse
e|-3-3-3-3-3-3-33-3-3-3-3-3-3-33-----------------------------|
B|-3-3-3-3-3-3-33-5-5-5-5-5-5-55--------0-0--------0-0-------|
G|-4-4-4-4-4-4-44-5-5-5-5-5-5-55--------0-0--------0-0-------|
D|-5-5-5-5-5-5-55-5-5-5-5-5-5-55--2-2-2------2-2-2-----------|
A|-5-5-5-5-5-5-55-3-3-3-3-3-3-33--2-2-2------2-2-2-----------|
E|-3-3-3-3-3-3-33-----------------1-1-1------1-1-1-----------|

e|---------------------------|
B|-1-1-1-1-1-1-1-1-------0---|
G|-0-0-0-0-0-0-0-0-----0-----|
D|-2-2-2-2-2-2-2-2---0-------|
A|-3-3-3-3-3-3-3-3--2--------|
E|------------------3--------|

Verse
e|----------------------3-------------------------------|
B|-------3------------5---------------0-0--------0-0----|
G|-----4------------5-----------------0-0--------0-0----|
D|---5------------5-------------2-2-2------2-2-2--------|
A|-5--------------3-------------2-2-2------2-2-2--------|
E|-3----------------------------1-1-1------1-1-1--------|

e|---------------------------|
B|-1-1-1-1-1-1-1-1-------0---|
G|-0-0-0-0-0-0-0-0-----0-----|
D|-2-2-2-2-2-2-2-2---0-------|
A|-3-3-3-3-3-3-3-3--2--------|
E|------------------3--------|

Pre-Chorus
[ Tab from: http://www.guitartabs.cc/tabs/m/maxeen/please_tab.html ]
e|----------------------------------|
B|----------------------------------|
G|--3-3-3-3-5-5-7-7-3-3-3-3-5-5-2-2-|
D|-5-5-5-5-5-5-5-5-5-5-5-5-5-5-5-5--|
A|----------------------------------|
E|----------------------------------|
 p.m...............................

Chorus
e|--------------------------------------------------------------------|
B|--------------------------------------------------------------------|
G|-------------------------------------------------3-0----------------|
D|---------3-5-------------3-5-------------3-5---------3-0------------|
A|---3-5-------------3-5-------------3-5-------------------3-5--------|
E|-3-----3-----3-3-3-----3-----3-3-3-----3-----3-3-------------3-3----|

Solo 
e|--------------------------------------------------------------------|
B|-13b---13b---13br-p11\-----------------13-11-----------------13-11--|
G|-----------------------12-10-12--10-12--------12~-12~-10-12---------|
D|--------------------------------------------------------------------|
A|--------------------------------------------------------------------|
E|--------------------------------------------------------------------|


e|----------------------------------------------------------15--------|
B|-13--13-13-13-13-13-13-11-11-11-11-11-11-11-11-11-11--18b----18b----|
G|-12--12-12-12-12-12-12-12-12-12-12-12-12-12-12-12-12----------------|
D|--------------------------------------------------------------------|
A|--------------------------------------------------------------------|
E|--------------------------------------------------------------------|

e|--------------------------------------------------------------------|
B|-18pbr-p15-15~-------------------13-11-----------------13-11--13----|
G|-----------0----12-10-12---10-12--------12~-12~--10-12--------12----|
D|--------------------------------------------------------------------|
A|--------------------------------------------------------------------|
E|--------------------------------------------------------------------|

e|--------------------------------------------------------------------|
B|-13-13-13-13-13-13-11-11-11-11-11-11-11-11--------------------------|
G|-12-12-12-12-12-12-12-12-12-12-12-12-12-12--------------------------|
D|--------------------------------------------------------------------|
A|--------------------------------------------------------------------|
E|--------------------------------------------------------------------|


============================================================================
Comments