Maxeen - Love Goes A Long Way Chords & Tabs

 

Love Goes A Long Way Chords & Tabs

Maxeen Chords & Tabs

Version: 1 Type: Bass Tab

Love Goes A Long Way Bass Tab

   
Maxeen - love goes a long way
por doky 2005

5 stringed bass
G D A E B

o es su mejor caso...

4 stringed bass
G D A E

sobreponiendo las notas de la cuerda B a la cuerda E


intro

|--------------------------------|
|---------11-11-------9----------|
|----11-11-----9-10-11-11-10-9-7-|
|-9-9----------------------------|
|--------------------------------|

verso

|------------------------------|
|---------11-11-------9--------|
|----11-11-----9-10-11-11-10-9-|
|-9-9--------------------------|
|------------------------------|

pre-coro

|-----------------------------------|
|---------11-11-------9-9-9---------|
|----11-11-----9-10-11-----11-10-9\-|
|-9-9-------------------------------|
|-----------------------------------|

coro

|-----------------------------------------------|
|----------------11-11-------9--------9---------|
|-----------11-11-----9-10-11-11-11-11-11-10-9\-|
|-5--7---9-9------------------------------------|
|--55-77----------------------------------------|

coro variacion 
[ Tab from: http://www.guitartabs.cc/tabs/m/maxeen/love_goes_a_long_way_btab.html ]
|-----------------|
|-----------------|
|-----------------|
|-5--77--55--77---|
|--55--77--55--77-|

coro variacion 2

|--------------------------------------|
|--------------------------------------|
|--------------------------------------|
|-5--77--9999-8888-6666----------------|
|--55--77--------------9999-777777-789-|

verso variacion

|------------------------------------------|
|------------------------------------11----|
|------------------------------------------|
|-9----7----9----7----9----7----9----------|
|------------------------------------------|

verso variacion 2

|-----------------------------------------------
|---------11-11-------9--------9----------------
|----11-11-----9-10-11-11-10-9--11-10-9---------
|-9-9----------------------------------9-9-9-9-9
|-----------------------------------------------

--------------------------------|
-----------11-11-11-11-9--------|
11-11-11-11-------------11-10-9-|
--------------------------------|
--------------------------------|

outro

|----|
|----|
|----|
|-9\-|
|----|


gracias al grupo Aroma A Marberia por ser el grupo mas cumbiero de mi curso hasta
hoy... no los olvidare cuates.

doky 2005