Mavericks - What A Crying Shame Chords & Tabs

 

What A Crying Shame Chords & Tabs

Mavericks Chords & Tabs

Version: 1 Type: Tab 0 ratings
1 star 2 stars 3 stars 4 stars 5 stars
comments

What A Crying Shame Tab

Tablature for The Mavericks's What A Crying Shame






#----------------------------------PLEASE NOTE---------------------------------#
#This file is the author's own work and represents their interpretation of the #
#song. You may only use this file for private study, scholarship, or research. #
#------------------------------------------------------------------------------#

WHAT A CRYING SHAMEAs recorded by The Mavericks(From the 1994 Album WHAT A CRYING SHAME)Transcribed by Thom PattisonWords and Music by Raul Malo & KostasGtr I (E A D G B E) - 'Untitled'

 4/4
  Gtr I: Lead Guitar Intro
|--------------------------------|
|--------------------------------|
|--------------------------------|
|-------------------------0------|
|-------5-7-5-5-5-0-3-2-3--------|
|-3-3-7---------------------3----|

This is the lead for the chorus
|---3-----3-------2-----0--------|
|-----3-----3-------3-----1------|
|-4-----4-----0-2-----0-----0----|
|--------------------------------|
|--------------------------------|
|--------------------------------|
[ Tab from: http://www.guitartabs.cc/tabs/m/mavericks/what_a_crying_shame_tab.html ]
Solo:
|-----------------------------------------------------------------------|
|-----------------------------------------------------------------------|
|-----------------------------------------------------------------------|
|------------------------------------------------------------0-0-0-0----|
|-------------4-4----------------7-7-------------4-4-3-2-0--------------|
|-5-5-5-7-7-7-----8-8-8-10-10-10-----5-5-5-7-7-7-----------3------------|
The chords G D C are played all the way through except on the solo where they are A C A G played as bar chords




Tablature Legend
----------------
 h   - hammer-on
 p   - pull-off
 b   - bend
 pb  - pre-bend
 r   - bend release (if no number after the r, then release immediately)
 /\  - slide into or out of (from/to "nowhere")
 s   - legato slide
 S   - shift slide
<n> - natural harmonic
[n]  - artificial harmonic
n(n) - tapped harmonic
 ~   - vibrato
 tr  - trill
 T   - tap
 TP  - trem. picking
 PM  - palm muting
\n/  - tremolo bar dip; n = amount to dip
 \n  - tremolo bar down
 n/  - tremolo bar up
/n\  - tremolo bar inverted dip
 =   - hold bend; also acts as connecting device for hammers/pulls
 <> - volume swell (louder/softer)
 x   - on rhythm slash represents muted slash
 o   - on rhythm slash represents single note slash

Misc Legend
-----------
 |  - bar
||  - double bar
||o - repeat start
o|| - repeat end
*|  - double bar (ending)
 :  - bar (freetime)
 $  - Segno
 &  - Coda
Tempo markers - <E/E./Q/Q./H/H.> = BPM(8/16=s8/s16), where s8 = swing 8ths, s16 = swing 16ths

** Generated using Power Tab Editor by Brad Larsen:   The Official Power Tab Web Site


Comments