Matthews Dave - Trouble Chords & Tabs

 

Trouble Chords & Tabs

Matthews Dave Chords & Tabs

Version: 1 Type: Tab 0 ratings
1 star 2 stars 3 stars 4 stars 5 stars
comments

Trouble Tab

   
#-----------------------------PLEASE NOTE-----------------------------------------#
#The following file is the author's own work and represents their interpretation  #
#of the song. You may only use this file for private study, scholarship, or       #
#research. Remember to view this file in Courier, or some other monospaced        #
#font                                                                             #
#---------------------------------------------------------------------------------#


"Trouble" by Dave Matthews
Transcribed by Adam Hanley


Intro...........Verse:

                A  Bm D..A  
e|-----------|--------------|
b|--5-5-5-5--|--5--5--5--5--|
g|--2-2-2-2--|--2--2--2--2--|
d|-----------|--------------|
a|-----------|-----2--5-----|
E|-----------|--5--------5--|


Chorus ("Trouble, get behind me now.."):
[ Tab from: http://www.guitartabs.cc/tabs/m/matthews_dave/trouble_tab.html ]
    A  Bm D  
e|-------------------|
b|--5--5--5--5---5---|
g|--2--2--2--2---2---|
d|-------------------|
a|-----2--5--5---5---|
E|--5----------------|


Bridge One ("Oh sweet day.."):
 
   F#m E  G D/F#   A  Bm D       A
e|--------3-----|-------------------|
b|--------0--3--|--5--5--5-5--5--5--|
g|--2--1--0--2--|--2--2--2-2--2--2--|
d|--4--2--0--0--|-------------------|
a|--4--2--2-----|-----2--5-5--5-----|
E|--2--0--3--2--|--5-------------5--|


Bridge Two ("Here I stand..")"

   F#m E  Bm D      F#m  E  G  D/F#  Dm  A/C#
e|-----------2--|R|---------3--------1------|
b|--------2--3--|E|---------0---3----3---2--|
g|--2--1--2--2--|P|--2---1--0---2----2---2--|
d|--4--2--2--0--|E|--4---2--0---0----0---2--|
a|--4--2--4-----|A|--4---2--2------------4--|
E|--2--0--------|T|--2---0--3---2-----------|


Trippy TR Solos:

Strum A: |5xx25x|



Questions Comments - AdWolf16@aol.com; visit my DMB Midi site, www.angelfire.com/music4/dmbmidis/
Comments