Matthews Dave - Too High Chords & Tabs

 

Too High Chords & Tabs

Matthews Dave Chords & Tabs

Version: 1 Type: Tab 0 ratings
1 star 2 stars 3 stars 4 stars 5 stars
comments

Too High Tab

#-----------------------------PLEASE NOTE-----------------------------------------#
#The following file is the author's own work and represents their interpretation  #
#of the song. You may only use this file for private study, scholarship, or       #
#research. Remember to view this file in Courier, or some other monospaced        #
#font                                                                             #
#---------------------------------------------------------------------------------#


"Too High" by Dave Matthews
Transcribed by Adam Hanley

Intro/Verse:

e|-------|---------------------|
b|-------|---------------------|
g|-------|---------------------|
d|----5--|----5----5----5------|
a|-------|---------------------|
E|--3----|--6----4----3----4---|


Chorus ("All you need.."):
[ Tab from: http://www.guitartabs.cc/tabs/m/matthews_dave/too_high_tab.html ]
e|--0--|--0--------|--2--|--2--|--0--|--0--2--|
b|--1--|--1--------|--3--|--3--|--0--|--1--3--|
g|--2--|--0---2-2--|--2--|--2--|--0--|--0--2--|
d|--2--|--2---3-3--|--0--|-----|--2--|--2--0--|
a|--0--|--3---3-3--|-----|--3--|--2--|--3-----|
E|-----|------1-1--|-----|-----|--0--|--------|
                          *****       slow hand..

*****Don't play this the first time.. only play when holding out the word "Yeaaaaaaah" (around 2:03)


Verse v2.0 (drums come in)

e|----------------|--------------|
b|---------(5)-1--|--------------|
g|-(4)-(2)--5--2--|--------------|
d|--5---3---5--2--|--5--5--5--5--|
a|--5---3---3--0--|--------3-----|
E|--3---1---------|--3--1-----5--|
                   ^^^^^^^^^^^^^^ During quiet section

John Williams Style Outro:

e|----------------------|---------------------------------|
b|----------------------|---------------------------------|
g|----------------------|--------8-7-----------8--7-------|
d|------5-------5--8-7--|--5--3--8-7-8--7--5-3-8--7--8-7--|
a|--5h6-----5h6----8-7--|--5--3--6-5-8--7--5-3-6--5--8-7--|
E|-----------------6-5--|--3--1------6--5--3-1-------6-5--|
                           +  +  & & +  +  & & +  +  & & 

End on |577xxx|

Note Durations:

Dotted quarter: +
Quarter: &



Questions Comments - AdWolf16@aol.com; visit my DMB Midi site, www.angelfire.com/music4/dmbmidis/
Comments