Matthews Dave - Oh Baritone Tuning Chords & Tabs

 

Oh Baritone Tuning Chords & Tabs

Matthews Dave Chords & Tabs

Version: 1 Type: Tab 0 ratings
1 star 2 stars 3 stars 4 stars 5 stars
comments

Oh Baritone Tuning Tab

#-----------------------------PLEASE NOTE-----------------------------------------#
#The following file is the author's own work and represents their interpretation  #
#of the song. You may only use this file for private study, scholarship, or       #
#research. Remember to view this file in Courier, or some other monospaced        #
#font                                                                             #
#---------------------------------------------------------------------------------#


"Oh" by Dave Matthews
Transcribed by Adam Hanley

Note: This song is in a RAISED BARITONE tuning (low to high: B,e,a,d,f#,b).. Either capo on the 7th fret or retune your guitar.. If you retune, I'd suggest tuning your a,d,g, and e strings up 2 half steps and your b up 3 half steps.. you'll have to do without a high b and move all these chords up one set of strings (ignore your low E), but it's less stressful than tuning up 7 half steps.


Intro:
[ Tab from: http://www.guitartabs.cc/tabs/m/matthews_dave/oh_baritone_tuning_tab.html ]
b||------------------|---------------------|
f#|----2-------3-----|-----0---------------|
d||----2-------0-----|-----0---0h2h0-------|
a||----2-----4----0--|---0-----------2--0--|
e||--0---4/5---------|---------------------|
B||------------------|--3------------------|


Verse:

b||--2-----2--0--|
f#|--3--3--3--2--|
d||--2--4--2--2--|
a||--0--4--0--2--|
e||-----2-----0--|
B||--------------|


Chorus:

b||--3-----3--0--|
f#|--0--0--0--0--|
d||--0--0--0--0--|
a||--0--2--0--2--|
e||--2--2--2--2--|
B||--3--0--3--0--|


Outro:

b||-------------------|-------------------|-------------------|--0--|
f#|-------------------|-------------------|-------------------|--3--|
d||------0-----0------|------0-----0------|------0-----0------|--2--|
a||----4-----4-----4--|----4-----4-----4--|----4-----4-----4--|--0--|
e||--3-----3-----3----|--2-----2-----2----|--0-----0-----0----|-----|
B||-------------------|-------------------|-------------------|-----|



Questions Comments - AdWolf16@aol.com; visit my DMB Midi site, www.angelfire.com/music4/dmbmidis/
Comments