Matthews Dave - Gravedigger Chords & Tabs

 

Gravedigger Chords & Tabs

Matthews Dave Chords & Tabs

Version: 2 Type: Tab 1 rating
1 star 2 stars 3 stars 4 stars 5 stars
comments

Gravedigger Tab

   
#-----------------------------PLEASE NOTE-----------------------------------------#
#The following file is the author's own work and represents their interpretation  #
#of the song. You may only use this file for private study, scholarship, or       #
#research. Remember to view this file in Courier, or some other monospaced        #
#font                                                                             #
#---------------------------------------------------------------------------------#


"Gravedigger" by Dave Matthews
Transcribed by Adam Hanley


Verse:

e|---------------|--------------|-----|---------------|
b|----0h1-1-1-0--|-----0h1-1-0--|-----|----0h1-1-1-0--|
g|----2---2-2-2--|---2-2---2-2--|--2--|----2---2-2-2--|
d|----2---2-2-2--|---2-2---2-2--|--3--|----2---2-2-2--|
a|--0------------|--------------|--3--|--0------------|
E|---------------|--3-----------|--1--|---------------|
[ Tab from: http://www.guitartabs.cc/tabs/m/matthews_dave/gravedigger_tab_ver_2.html ]
Note: all the hammer-ons are optional while singing


Chorus:

e|---------------|--------------|--0--|-----------|---------------|---------------|
b|----0h1-1-1-0--|-----0h1-1-0--|--0--|--1--0--3--|----0h1-1-1-0--|----0h1-1-1-0--|
g|----2---2-2-2--|---2-2---2-2--|--1--|--2--2--2--|----2---2-2-2--|----2---2-2-2--|
d|----2---2-2-2--|---2-2---2-2--|--2--|--2--2--0--|----2---2-2-2--|----2---2-2-2--|
a|--0------------|--------------|--2--|--0--------|--0------------|--0------------|
E|---------------|--3-----------|--0--|-----3--2--|---------------|---------------|


Bridge (a la "Tribute" by Tenacious D):

e|--1-----|--0--3----|
b|--3-----|--1--0-3--|
g|--2--2--|--0--0-3--|
d|--0--3--|--2--0-3--|
a|-----3--|--3--2-1--|
E|-----1--|-----3----|


Outro (6/8 or 3/4):

e|--0--------0--|
b|--1--0-----0--|
g|--2--2--2--1--|
d|--2--2--3--2--|
a|--0-----3--2--|
E|-----3--1--0--|


Questions Comments - AdWolf16@aol.com; visit my DMB Midi site, www.angelfire.com/music4/dmbmidis/
Comments