Matthews Dave - Baby Chords & Tabs

 

Baby Chords & Tabs

Matthews Dave Chords & Tabs

Version: 1 Type: Tab 1 rating
1 star 2 stars 3 stars 4 stars 5 stars
comments

Baby Tab

	Chorus/"Baby"			

--------------------------------------------------------------------
--------------------------------------------------------------------
--7--6-----------5--4------------------xxxxxxx--xxxxxx--------------
--7--7----7--6---5--5---5--4-----------77-7777--77-777--------------
----------7--7----------5--5-----------55h7577--55h777--------------
--------------------------------------------------------------------


	Verse
 nothin is here to stay   everything has to begin and end    
--------------------------------------------------------------------------
--------------------------------------------------------------------------
---4---------------5------4-------------------5--------7------------------
---5---------------7------5-------------------7--------7------------------
---5---------------7------5-------------------7--------6------------------
--------------------------------------------------------------------------

a ship in a bottle wont sail   all you can do is dream that the wind will blow you 
[ Tab from: http://www.guitartabs.cc/tabs/m/matthews_dave/baby_tab.html ]
-----------------------------------------------------------------------------------------
-----------------------------------------------------------------------------------------
--4--------------------5---------4-----------------5------------4--------------7---------
--5--------------------7---------5-----------------7------------7--------------7---------
--5--------------------7---------5-----------------7------------7--------------x---------
-------------------------------------------------------------------------------7---------


  across the water      a ship in a bottle set sail (every time it is said play this:)

  ----------------     ----------------------------------------------------------------
  ----------------     ----------------------------------------------------------------
  --7-------------     ----------------------------------------------------------------
  --7-------------     ----------------------------------------------------------------
  --x-------------     ------9---7--5-4h5-----5h7--5-----------------------------------
  --5-------------     ----------------------------------------------------------------

same thing for verse two

	"some may say theres no hope in hell..."

----------------------------------------------------------------------------------
----------------------------------------------------------------------------------
------7----7----7----7----7----7----7----7----7----7----7----7---7---7---7---7----
-------------------------------------------4----4----4----4----5---5---5---5------
----5---5----5----5----7----7----7----7-------------------------------------------
----------------------------------------------------------------------------------






Comments