Matthews Dave - An Another Thing Chords & Tabs

 

An Another Thing Chords & Tabs

Matthews Dave Chords & Tabs

Version: 1 Type: Tab 0 ratings
1 star 2 stars 3 stars 4 stars 5 stars
comments

An Another Thing Tab

#-----------------------------PLEASE NOTE-----------------------------------------#
#The following file is the author's own work and represents their interpretation  #
#of the song. You may only use this file for private study, scholarship, or       #
#research. Remember to view this file in Courier, or some other monospaced        #
#font                                                                             #
#---------------------------------------------------------------------------------#


"An' Another Thing" by Dave Matthews
Transcribed by Adam Hanley

Note: Little Thing was always played standard, but Dave plays some baritone acoustic on this version for the bass notes.


Standard Verse:
[ Tab from: http://www.guitartabs.cc/tabs/m/matthews_dave/an_another_thing_tab.html ]
e|----------|--------|
b|----------|--------|
g|------11--|-----4--|
d|----10----|----5---|
a|---9------|---6----|
E|--8-------|--7-----|


Bari Verse:

b||-------|-------|
f#|-------|-------|
d||-------|-------|
a||-------|-------|
e||----2--|----3--|
B||--1----|--0----|


Standard Chorus:

e|--------------------|
b|--------------------|
g|--11--11--11--7--7--|
d|--9---9---0---0--0--|
a|--10--10--9---------|
E|--0---8---10--7--6--|


Bari Chorus:

b||--------------------|
f#|--------------------|
d||--------------------|
a||--------------------|
e||---0-----------7-6--|
B||--------1---3-------|



Questions Comments - AdWolf16@aol.com; visit my DMB Midi site, www.angelfire.com/music4/dmbmidis/
Comments