Matthew Good Band - Weapon Chords & Tabs

 

Weapon Chords & Tabs

Matthew Good Band Chords & Tabs

Version: 2 Type: Tab 0 ratings
1 star 2 stars 3 stars 4 stars 5 stars
comments

Weapon Tab

Matthew Good - Weapon
Tabbed by: Andrew Muir on January 7, 2003
Written by: Matthew Good

The tuning for this song is all a half step down. 
The timing is simple if you know the song. 




Intro:

   Here by my side...             An angel...
e|----------------|-------0--------|----------------|----------------|
B|-------3-------0|---------------0|----------------|----------------|
G|-----0-------0--|-----0-------0--|-------0-------0|-------0-------0|
D|---4-------4----|---4-------4----|-----4-------4--|-----4-------4--|
A|-5-------5------|-3-------3------|---2-------2----|---2-------2----|
E|----------------|----------------|-0-------0------|-0-------3------|


   Here by my side...              The Devil...
e|----------------|-------0--------|----------------|----------------|
B|-------3-------0|---------------0|----------------|----------------|
G|-----0-------0--|-----0-------0--|-------0-------0|-------0-------0|
D|---4-------4----|---4-------4----|-----4-------4--|-----4-------4--|
A|-5-------5------|-3-------3------|---2-------2----|---2-------2----|
E|----------------|----------------|-0-------0------|-0-------3------|

[ Tab from: http://www.guitartabs.cc/tabs/m/matthew_good_band/weapon_tab_ver_2.html ]
   Never turn your back on it...   Never turn your back on it again...
e|----------------|-------0--------|----------------|----------------|
B|-------3-------0|---------------0|----------------|-------1-------1|
G|-----0-------0--|-----0-------0--|-------0-------0|-----0-------0--|
D|---4-------4----|---4-------4----|-----4-------4--|---2-------2----|
A|-5-------5------|-3-------3------|---2-------2----|-3-------3------|
E|----------------|----------------|-0-------0------|----------------|


   Here by my side...              It's heaven...
e|----------------|-------0--------|----------------|----------------|
B|-------3-------0|---------------0|----------------|----------------|
G|-----0-------0--|-----0-------0--|-------0-------0|-------0-------0|
D|---4-------4----|---4-------4----|-----4-------4--|-----4-------4--|
A|-5-------5------|-3-------3------|---2-------2----|---2-------2----|
E|----------------|----------------|-0-------0------|-0-------3------|


This is the accoustic part of the song. The chorus is played on electric
and with a string compliment, until the outro, which is more or less the
same as the intro. Let me know what you think.
     andrew_muir69@hotmail.com


Comments