Matthew Good Band - Symbolistic White Walls Chords & Tabs

 

Symbolistic White Walls Chords & Tabs

Matthew Good Band Chords & Tabs

Version: 1 Type: Bass Tab 0 ratings
1 star 2 stars 3 stars 4 stars 5 stars
comments

Symbolistic White Walls Bass Tab

Symbolistic White Walls
Matthew Good Band- Last Of The Ghetto Astronauts
Tabbed by- Shane
frenchcowsgomeh@hotmail.com

I know I tabbed it out before, but this is an easier way to play it.
For the whole song put more emphasis on the first note (DO-do DO-do etc.)

Verse

G|----------------------------------------------------------------|
D|----------------------------------------------------------------|
A|-------------------------------------------------3-3-3-3-3-5-3--|
E|-3-3-3-3-3-3-3-3-6-6-6-6-6-6-6-6-5-5-5-5-5-5-5-5---------------5|

Chorus

G|----------------------------------------------------------------|
D|----------------------------------------------------------------|
A|-------------------------------------------------1-1-1-1-1-1-1-1|
E|-3-3-3-3-3-3-3-3-6-6-6-6-6-6-6-6-5-5-5-5-5-5-5-5----------------|

Then back to verse
Then back to chorus

This is what you play during the "It's alright now..." part to the end of 
the song
[ Tab from: http://www.guitartabs.cc/tabs/m/matthew_good_band/symbolistic_white_walls_btab.html ]
G|----------------------------------------------------------------|
D|-------------------------------------------------3-3-3-3-3-5-3--|
A|-----------------6-6-6-6-6-6-6-6-------------------------------3|
E|-3-3-3-3-3-3-3-3-----------------6-6-6-6-6-6-6-6----------------|

End of on E3 and your done.  Very easy, and easier than my original tab,
which you can view below.

Original Tab for "Symbolistic White Walls"

Verse/Chorus

G|----------------------------------------------------------------|
D|----------------------------------------------------------------|
A|-----------------1-1-1-1-1-1-1-1-0-0-0-0-0-0-0-0-3-3-3-3-3-5-3--|
E|-3-3-3-3-3-3-3-3-----------------------------------------------5|


Play this the 2nd time he sings the chorus (when he repeats the words)

G|-------------------------------------------------------------------|
D|--------------------------------------------------1-1-1-1-1-1-1-1-1|
A|-----------------1-1-1-1-1-1-1-1-0-0-0-0-0-0-0-0-------------------|
E|-3-3-3-3-3-3-3-3---------------------------------------------------|
Play this during the "It's alright now..." to end of song

G|---------------------------------------------------------------|
D|----------------1-1-1-1-1-1-1-1-----------------3-3-3-3-3-5-3--|
A|--------------------------------1-1-1-1-1-1-1-1---------------5|
E|-3-3-3-3-3-3-3-3----------------------------------------------

End off on an E3 and your done.  Very simple to play.

Comments