Matthew Good Band - Raygun Chords & Tabs

 

Raygun Chords & Tabs

Matthew Good Band Chords & Tabs

Version: 2 Type: Bass Tab 0 ratings
1 star 2 stars 3 stars 4 stars 5 stars
comments

Raygun Bass Tab

Song: Raygun 
Artist: Matthew Good Band 
Album: Raygun EP 
  Tabbed by Steve 

Intro 
G|-------------------------------------|---------------------| 
D|-------------------------------------|---------------------| 
A|---7-7-7-7-7-7-7-7-7-7-7-7-7-7-7-7---|---7-7-7-7-7-7-7-7---| 
E|---0---------------------------------|-----0---0---0---0---| 

        Pre-Verse 
G|---------------------------------------------| 
D|*-------------------------------------------*| 
A|*------------3-3-3-3------------------------*| 
E|---0-0-0-0-------------3-3-3--3-3--3-3-3-3---| 
[ Tab from: http://www.guitartabs.cc/tabs/m/matthew_good_band/raygun_btab_ver_2.html ]
        Verse 
G|--------------------------------------------| 
D|*------------------------------------------*| 
A|*------------3-3-3-3-------------5-5-------*| 
E|---0-0-0-0-------------3-3-3-3-------2h3p---| 

        Chorus 
G|-----------------------------------------------| 
D|*---------------------------------------------*| 
A|*--5-5-5-5-5---3-3-3-3-3/7-7-7-7-7-7\5-5-5-5--*| 
E|-------------------------0---------------------| 

        Post Chorus/"Wishing it was over" 
G|-------------------------------------------| 
D|*-----------------------------------------*| 
A|*--------------------------------3-3-3-3--*| 
E|---0-0-0-0---2-2-2-2---3-3-3-3-------------| 
  
  

Any Questions etc… send them to Metalliduck62@hotmail.com 


Comments