Matthew Good Band - Omissions Of The Omen Chords & Tabs

 

Omissions Of The Omen Chords & Tabs

Matthew Good Band Chords & Tabs

Version: 1 Type: Tab 0 ratings
1 star 2 stars 3 stars 4 stars 5 stars
comments

Omissions Of The Omen Tab

##################################################################################
# This file is the author's own work and represents their interpretation of the  #
# song. You may only use this file for private study, scholarship, or research.  #
##################################################################################

Matthew Good Band - "Omissions of the Omen"
Album: Last of the Ghetto Astronauts (hidden track)

Tuned down half a step, with slight "echo" effect

Verse:  Matt mostly plays the first riff, but uses the second one at the end of the intro 
and some of the verses.

eb|----------------|----------------|----------------|----------------|
Bb|----------------|----------------|----------------|----------------|
Gb|----------------|----------------|----------------|----------------|
Db|---6---7-7-6----|---6---7-7-6----|---6---7-7-6----|---6---7-7-6----|
Ab|-4---4--------4-|-4---4--------4-|-0---0--------0-|--------------0-|
Eb|----------------|----------------|----------------|-0---0----------|
[ Tab from: http://www.guitartabs.cc/tabs/m/matthew_good_band/omissions_of_the_omen_tab.html ]
eb|----------------|----------------|----------------|----------------|
Bb|----------------|----------------|----------------|----------------|
Gb|----------------|----------------|-------4-4------|----------------|
Db|---6---7-7-6----|---6---7-7-6----|---6-------6----|---6---7-7-6----|
Ab|-4---4--------4-|-4---4--------4-|-0---0--------0-|--------------0-|
Eb|----------------|----------------|----------------|-0---0----------|


Chorus:  No singing

eb|---------------------------|
Bb|---------------------------|
Gb|---------------------------|
Db|-----6-----6-----6---7-7-6-|
Ab|-0-4---4-0---0-------------|
Eb|---------------0---0-------|


Outro: "I'm flying..."

eb|-----------------------------------------------------------------|
Bb|-----------------------------------------------------------------|
Gb|-------2-2-------------2-2-------------2-2-------------2-2-------|
Db|---2-2-----2-2-----2-2-----2-2-----2-2-----2-2-----2-2-----2-2---|
Ab|-0-------------0-2-------------2-4-------------4-2-------------2-|
Eb|-----------------------------------------------------------------|


CHORUS,

OUTRO (played once with no accompaniment, and with "I'm flying (ooh yeah)" after that)
Comments