Matthew Good Band - Load Me Up Chords & Tabs

 

Load Me Up Chords & Tabs

Matthew Good Band Chords & Tabs

Version: 2 Type: Tab 0 ratings
1 star 2 stars 3 stars 4 stars 5 stars
comments

Load Me Up Tab

Load Me Up
Artist: Matthew Good Band


------------------------------------------------------------------------------
-5---5---5---5---5---5---5---5-5-5---5---5---5---5---5---5---5-5--------------
-6---6---6---6---6---6---6---6-7-6---6---6---6---6---6---6---6-7--------------
-7---7---7---7---7---7---7---7-7-7---7---7---7---7---7---7---7-7--------------
-5---5---5---5---5---5---5---5-5-5---5---5---5---5---5---5---5-5--------------
------------------------------------------------------------------------------
[ Tab from: http://www.guitartabs.cc/tabs/m/matthew_good_band/load_me_up_tab_ver_2.html ]
Verse 1:                                                                             
After intro play this (2nd time around the other guitar comes in)
------------------------------------------------------------------------------
-5---5---5---5---5---5---5---5-5-5---5---5---5---5---5---5---5-5--------------
-6---6---6---6---6---6---6---6-7-7---7---7---7---7---7---7---7-6--------------
-7---7---7---7---7---7---7---7-7-7---7---7---7---7---7---7---7-7--------------
-5---5---5---5---5---5---5---5-5-5---5---5---5---5---5---5---5-5--------------
------------------------------------------------------------------------------
                                                                              
------------------------------------------------------------------------------
-5---5---5---5---5---5---5---5-5-5---5---5---5-5-5---5---5---5-5--------------
-6---6---6---6---6---6---6---6-7-7---7---7---6-7-7---7---7---7-6--------------
-7---7---7---7---7---7---7---7-7-7---7---7---7-7-7---7---7---7-7--------------
-5---5---5---5---5---5---5---5-5-5---5---5---5-5-5---5---5---5-5--------------
------------------------------------------------------------------------------
                                                                              
Play this with verse 1 second time around: (palm muted)
------------------------------------------------------------------------------
------------------------------------------------------------------------------
-7-7-7-7-7-7-7-7-7-7-7-7-7-7-7-7----------------------------------------------
-7-7-7-7-7-7-7-7-7-7-7-7-7-7-7-7-5-5-5-5-5-5-5-5-5-5-5-5-5-5-5-5--------------
-5-5-5-5-5-5-5-5-5-5-5-5-5-5-5-5-5-5-5-5-5-5-5-5-5-5-5-5-5-5-5-5--------------
---------------------------------3-3-3-3-3-3-3-3-3-3-3-3-3-3-3-3--------------
                                                                              
------------------------------------------------------------------------------
------------------------------------------------------------------------------
------------------------------------------------------------------------------
-9-9-9-9-9-9-9-9-9-9-9-9-9-9-9-9-2-2-2-2-2-2-2-2-5-5-5-5-5-5-5-5--------------
-9-9-9-9-9-9-9-9-9-9-9-9-9-9-9-9-2-2-2-2-2-2-2-2-5-5-5-5-5-5-5-5--------------
-7-7-7-7-7-7-7-7-7-7-7-7-7-7-7-7-0-0-0-0-0-0-0-0-3-3-3-3-3-3-3-3--------------
                                                                              
After verse: (riff 2)
------------------------------------------------------------------------------
---------0---------------0----------------------------------------------------
-----2-------2-------2-------2------------------------------------------------
------------------------------------------------------------------------------
-----------------2------------------------------------------------------------
-3----------------------------------------------------------------------------
                                                                              
Play with Riff 2:(first two times)
------------------------------------------------------------------------------
------------------------------------------------------------------------------
------------------------------------------------------------------------------
-5-5-5-5-5-5-5-5/9-9-9-9-9-9-9-9----------------------------------------------
-5-5-5-5-5-5-5-5/9-9-9-9-9-9-9-9----------------------------------------------
-3-3-3-3-3-3-3-3/7-7-7-7-7-7-7-7----------------------------------------------
                                                                              
Play with riff 2 for the 3rd and forth time:
------------------------------------------------------------------------------
------------------------------------------------------------------------------
------------------------------------------------------------------------------
-5-5-5-5-5-5-5-5-5-5-5-5-5-5-5-5-2-2-2-2-2-2-2-2-2-2-2-2-2-2-2-2--------------
-5-5-5-5-5-5-5-5-5-5-5-5-5-5-5-5-2-2-2-2-2-2-2-2-2-2-2-2-2-2-2-2--------------
-3-3-3-3-3-3-3-3-3-3-3-3-3-3-3-3-0-0-0-0-0-0-0-0-0-0-0-0-0-0-0-0--------------
                                                                              
"I'm frantic......load me up"
------------------------------------------------------------------------------
------------------------------------------------------------------------------
------------------------------------------------------------------------------
---------------4---4-4--------------------------------------------------------
-5---5---5-5-5-2---2-2-2-2---2------------------------------------------------
-3---3---3-3-3---------0-0---0------------------------------------------------
                                                                              
"whatever..............all the way up" (rythem 3)
------------------------------------------------------------------------------
------------------------------------------------------------------------------
-7-7-7-7-12-12-12-12-11-11-11-11-9-9-9-9--------------------------------------
-7-7-7-7-12-12-12-12-12-12-12-12-9-9-9-9--------------------------------------
-5-5-5-5-10-10-10-10-12-12-12-12-7-7-7-7--------------------------------------
-5-5-5-5-10-10-10-10-10-10-10-10-7-7-7-7--------------------------------------
                                                                              
The second time in the song where rythem 3 is played, play this along:
------------------------------------------------------------------------------
-7-------8-----------7-----------5--------------------------------------------
-9b11----10b12-------9b11--------7b9------------------------------------------
------------------------------------------------------------------------------
------------------------------------------------------------------------------
------------------------------------------------------------------------------
                                                                              
------------------------------------------------------------------------------
-7-------8-----------7--------------------------------------------------------
-9b11----10b12-------9b11--------7--------------------------------------------
------------------------------------------------------------------------------
------------------------------------------------------------------------------
------------------------------------------------------------------------------

Guitar 1 Rythem for the solo:                                                                             
-------------------------------------|
-------------------------------------|
-7--7--7--7--------------------------|
-7--7--7--7--7--7--7--7--7\5--5--5--5|
-5--5--5--5--7--7--7--7--7\5--5--5--5|
-------------5--5--5--5--5\3--3--3--3|

-------------------------------------|
-------------------------------------|
-7--7--7--7--------------------------|
-7--7--7--7--7--7--7--7--7/9--9--9--9|
-5--5--5--5--7--7--7--7--7/9--9--9--9|
-------------5--5--5--5--5/7--7--7--7|                                                                             
                                                                             
-------------------------------------|
-------------------------------------|
-7--7--7--7--------------------------|
-7--7--7--7--7--7--7--7--7\5--5--5--5|
-5--5--5--5--7--7--7--7--7\5--5--5--5|
-------------5--5--5--5--5\3--3--3--3|
                                                                              
-------------------------------------|
-------------------------------------|
-7--7--7--7-----------------7--------|
-7--7--7--7--7--7--7--7--7--7--------|
-5--5--5--5--7--7--7--7--7--5--------|
-------------5--5--5--5--5-----------|
                                                                              
Guitar 2 Solo: Listen to the CD and you'll get the hang of it. Just a lot of bends, 
its really cool though.
Note: (when there is 2 notes and one is bending,
 PLAY AND HOLD BOTH STRINGS TO GET THE SAME NOTE)
------------------------------------------------------------------------------
-7----------------------------------------------------------------------------
-9b11---------r9p7------------------------------------------------------------
-----hold bend----7h9--9--9-7h9--9--9-7h9---9-7h9--9--9-7h9--9--9--7h9---9----
------------------------------------------------------------------------------
------------------------------------------------------------------------------
                                                                              
------------------------------------------------------------------------------
-5------------------------7--------10---7-------------------------------------
-7b9r7b9r7b9r7-6-7--------9b11r9-7-9----9b11r9-7------------------------------
---bend lots------------0------------------------8b---------------------------
------------------------------------------------------------------------------
------------------------------------------------------------------------------
                                                                              
------------------------------------------------------------------------------
-10-----11-----13-----15------------------------------------------------------
-12b14--13b15--15b17--17b19---------------------------------------------------
------------------------------------------------------------------------------
------------------------------------------------------------------------------
------------------------------------------------------------------------------
                                                                              

Comments