Matthew Good Band - Hello Time Bomb Chords & Tabs

 

Hello Time Bomb Chords & Tabs

Matthew Good Band Chords & Tabs

Version: 2 Type: Tab 0 ratings
1 star 2 stars 3 stars 4 stars 5 stars
comments

Hello Time Bomb Tab

##################################################################################
# This file is the author's own work and represents their interpretation of the  #
# song. You may only use this file for private study, scholarship, or research.  #
##################################################################################

Hello Time Bomb – Matthew Good Band
   (riff 1)     (riff 2)
e-------------------------|
B-------------------------|
G-------------------------|
D-------------------------|
A--2-2-4-4-4--------------|
E---------------4-4-0-0-0-|
 pre-chorus
e-------------------------|
B-------------------------|
G--------------4----------|
D---2----------2—(x16)----|
A---2—(x16)----2----------|
E---0---------------------|
 chorus
E-------------------------|
B-------------------------|
G----6--------------4-----|
D----6----7----2----4-----|
A----4----7----0----2-----|
E---------5----0----------|
Riff 1                     riff 2
       I found me a reason
                     Riff 1
So check me tomorrow
                         Riff 2
We'll see if I'm leaking
                               Riff 1
Push and push and push till it hurts
                           Riff 2
My devil's on rollerskates
                        Riff 1

[ Tab from: http://www.guitartabs.cc/tabs/m/matthew_good_band/hello_time_bomb_tab_ver_2.html ]
e-----------------------------|
B-----------------------------|
G---4-4/--6-6-6---------------|
D---4-4/--6-6-6--6-6\--2-2-2--|
A---2-2/--4-4-4--6-6\--2-2-2--|
E----------------4-4\--0-0-0--|
Riff 1                    riff 2
    Life's for the living
                     Riff 1
So check me tomorrow
                         Riff 2
We'll see if I'm kidding
                               Riff 1
Push and push and push till it hurts
                  Riff 2
Did it on Ritalin
                          Riff 1


BRIDGE  
e------------------------|
B------------------------|
G---6-6------------------| 
D---6-6---7--6--2--4-4---|   (x7)
A---4-4---7--6--2--4-4---|
E---------5--4--0--2-2---|
Riff 1                     riff 2
   If life's for the livid
                  Riff 1
Check me tomorrow
                         Riff 2 (FOOTNOTE 1)
We'll see if I'm emperor
 (#1)                        Riff 1  (FOOTNOTE 2)
My devil's on sugared smacks
                        Riff 2


 chorus
Dirty enough I got me a love ...


Hello time bomb, I'm ready to go off.
  (FOOTNOTE 1)       (FOOTNOTE 2)
e-----------------|-------------------|
B-----------------|-------------------|
G-----------------|-------------------|
D-6-6-2-2-2--7-9--|--6-6-7-7-7---7-4--|
A-6-6-2-2-2--7-9--|--6-6-7-7-7---7-4--|
E-4-4-0-0-0--5-7--|--4-4-5-5-5---5-2--|


(Guitar 2) #1 B----5p4h5p4h5------------|
          -- changes to this after “solid gold” is SCREAMED

           #2 B----7-5-7-4h7-7-5-7-4h7--|
          -- and finally, changes to this after “hello timebomb”

           #3 B-----5p4---4h5p4--| repeat till end of song
              G---------4--------|
Comments