Matthew Good Band - Fated Chords & Tabs

 

Fated Chords & Tabs

Matthew Good Band Chords & Tabs

Version: 1 Type: Tab 1 rating
1 star 2 stars 3 stars 4 stars 5 stars
comments

Fated Tab

Song:   Fated
Artist: Matthew Good Band
Album:  Lo-fi B sides

Tabbed by: Markus  
           markus_ana@yahoo.ca

Guitar 1: Acoustic
Guitar 2: Acoustic
Guitar 3: Electric (chorus effect)

All guitars tuned down 1/2 step


Notes:  The root of this song was created by Aaron. It is found 
        at www.thetabworld.com. Thanks for the a great tab.
        I have only really changed the verse.


INTRO/VERSE

Guitar 1
d#:-------------------------------------||
A#:------------------------------------o||
F#:--0-----0-----0------0---------------||
C#:--0-----0-----0------0---------------||
G#:--9-----12----12-----5--------------o||
D#:--7-----9-----10-----3---------------||

Guitar 2
d#:-------------------------------------||
A#:------------------------------------o||
F#:-----0-------------0-----------------||
C#:----0-----0-------0------0-----------||
G#:------------------------0-----------o||
D#:------------9------------------------||


Repeat Intro 4 times

Vocals enter on 5th
Repeat intro/verse for 7 times
Then end verse with:

Guitar 1
d#:-------------------------------|
A#:-------------------------------|
F#:---0----0----0-----0-----------|
C#:---0----0----0-----0-----------|
G#:---3----3----0-----0-----------|
D#:---5----5----2-----2-----------|

Guitar 2
d#:-------------------------------|
A#:-------------------------------|
F#:------0----------0-------------|
C#:-----0----0-----0------0-------|
G#:----------------------0--------|
D#:-----------9-------------------|
CHORUS
Guitar 1
d#:-----3--0--3--3--3------0--3--3--3----3--3--3---3--0--0--0------|
A#:-----3--3--3--3--3------3--3--3--3----3--3--3---3--3--3--3------|
F#:-----0--2--0--0--0------2--0--0--0----0--0--0---0--2--2--0------|
C#:-----x--0--0--0--x------0--0--0--x----0--0--x---0--0--2--2------|
G#:-2-2-2--0--x--x--2------0--x--x--2----x--x--2---x--0--0--2------|
D#:-0-0-0-----3--2--0---------3--2--0----3--2--0---3--------0------|


INRO/VERSE2:


Repeat Acoustic intro 3 times with this, then 4th:
[ Tab from: http://www.guitartabs.cc/tabs/m/matthew_good_band/fated_tab.html ]
Guitar 3
  3x                                   
d#:-------------------2------------||------------------2------2------|
A#:--2------2^3---------2---2-----o||-2------2^3---------2----3------|
F#:-----4-4------4--4-----4---4----||----4-4------4--4-----4--4------|
C#:--------------------------------||--------------------------------|
G#:-------------------------------o||--------------------------------|
D#:--------------------------------||--------------------------------|



Repeat Verse 4 times, both guitars.
Then add the above repeated riff 4 times 

Guitar 1
d#:-------------------------------------||
A#:------------------------------------o||
F#:--0-----0-----0------0---------------||
C#:--0-----0-----0------0---------------||
G#:--9-----12----12-----5--------------o||
D#:--7-----9-----10-----3---------------||

Guitar 2
d#:-------------------------------------||
A#:------------------------------------o||
F#:-----0-------------0-----------------||
C#:----0-----0-------0------0-----------||
G#:------------------------0-----------o||
D#:------------9------------------------||

Guitar 3(last 4 bars)
   4x
d#:-------------------2------------||
A#:--2------2^3---------2---2-----o||
F#:-----4-4------4--4-----4---4----||
C#:--------------------------------||
G#:-------------------------------o||
D#:--------------------------------||

Then again:

Guitar 1
d#:-------------------------------|
A#:-------------------------------|
F#:---0----0----0-----0-----------|
C#:---0----0----0-----0-----------|
G#:---3----3----0-----0-----------|
D#:---5----5----2-----2-----------|

Guitar 2
d#:-------------------------------|
A#:-------------------------------|
F#:------0----------0-------------|
C#:-----0----0-----0------0-------|
G#:----------------------0--------|
D#:-----------9-------------------|

Then Chorus again: 
                                                      Repeat 3x
Guitar 1                                             |--------|                                                                                               |--------|      
d#:-----3--0--3--3--3------0--3--3--3----3--3--3---3--0--0--0------|
A#:-----3--3--3--3--3------3--3--3--3----3--3--3---3--3--3--3------|
F#:-----0--2--0--0--0------2--0--0--0----0--0--0---0--2--2--0------|
C#:-----x--0--0--0--x------0--0--0--x----0--0--x---0--0--2--2------|
G#:-2-2-2--0--x--x--2------0--x--x--2----x--x--2---x--0--0--2------|
D#:-0-0-0-----3--2--0---------3--2--0----3--2--0---3--------0------|     
                                                     |--------|
Comments