Matthew Good Band - Everything Is Automatic Chords & Tabs

 

Everything Is Automatic Chords & Tabs

Matthew Good Band Chords & Tabs

Version: 3 Type: Tab 0 ratings
1 star 2 stars 3 stars 4 stars 5 stars
comments

Everything Is Automatic Tab

   
-----------------------------------------------------------------------------
                      Matthew Good Band-Everything Is Automatic            
                                                                           
                                                                           
-----------------------------------------------------------------------------


Tabbed:Spence#9
E-mail:SpencerMcGillis09@Hotmail.com
[ Tab from: http://www.guitartabs.cc/tabs/m/matthew_good_band/everything_is_automatic_tab_ver_3.html ]
e|---------------------------------------------------------------------------|
B|---------------------------------------------------------------------------|
G|---------------------------------------------------------------------------|
D|---------------------------------------------------------------------------|
A|------5--5--5--5-5---------5-----------5--5--------------------------------|
E|-7777--77-77-7--7-7---5555---55--3333---3----------------------------------|


e|---------------------------------------------------------------------------|
B|---------------------------------------------------------------------------|
G|---------------------------------------------------------------------------|
D|-------0----0----0----0---0------------0------------0-----0----------------|
A|-2222----22---22---2----2----2----0000---00--------------------------------|
E|---------------------------------------------3333------3-------------------|


Enjoy!=D
Comments