Matthew Good Band - Alabama Motel Room Chords & Tabs

 

Alabama Motel Room Chords & Tabs

Matthew Good Band Chords & Tabs

Version: 2 Type: Bass Tab

Alabama Motel Room Bass Tab

Matthew Good Band
Alabama Motel Room
Last of the Ghetto Astronauts

Intro
G|------------------------|------------------------|------------------------|
D|---0-0-0-0--0-0---------|---0-0-0-0--0-0---------|---0-0-0-0--0-0---------|
A|---5-5-5-5--5-5---7b8---|---5-5-5-5--5-5---7b8---|---5-5-5-5--5-5---7b8---|
D|---0-0-0-0--0-0---------|---0-0-0-0--0-0---------|---0-0-0-0--0-0---------|

Verse
G|------------------|------------------|------------------|------------------|
D|*-----------------|-----------------*|------------------|------------------|
A|*--5-5--5-5-3h5---|---5-5--5-5-3h5--*|---3-3--3-3-1h3---|---3-3--3-3-1h3---|
D|------------------|------------------|------------------|------------------|
[ Tab from: http://www.guitartabs.cc/tabs/m/matthew_good_band/alabama_motel_room_btab_ver_2.html ]
Chorus
G|--------------------|--------------------|------------------------|
D|--------------------|--------------------|*--0-0-0-0--0-0--------*|
A|---3p2-2--2?2-3p2---|---3p2-2--2-2-3p2---|*--5-5-5-5--5-5---7b8--*|
D|--------------------|--------------------|---0-0-0-0--0-0---------|

Bridge
G|---------------|---------------|---------------|---------------|--------------
D|*--------------|---------------|---------------|--------------*|--------------
A|*--5-5---5-5---|---------------|---3-3---3-3---|--------------*|--------------
D|---------------|---7-7---7-7---|---------------|---5-5---5-5---|---5-/-0-0-0-0

Outro
G|-------|-------|---7---|
D|-------|-------|---0---|
A|---2---|---3---|---5---|
D|-------|-------|---0---|