Matthew Good - Oh Be Joyful Chords & Tabs

 

Oh Be Joyful Chords & Tabs

Matthew Good Chords & Tabs

Version: 1 Type: Tab 0 ratings
1 star 2 stars 3 stars 4 stars 5 stars
comments

Oh Be Joyful Tab

   
-------------------------------------------------------------------------------
                                                  Oh Be Joyful - Matthew Good
-------------------------------------------------------------------------------
Tabbed by: Tristan Smith
Email: Blindsighted@hotmail.com

Oh Be Joyful
Matthew Good
In a Coma

The strumming pattern isn't difficult, just listen to the song to get it right.
There are two guitars in the song, but I only tabbed one. I apologize for any
mistakes, feel free to email corrections.

| /  slide up
| \  slide down
| h  hammer-on
| p  pull-off
| ~  vibrato
| +  harmonic
| x  Mute note

Tuning: 1/2 step down

Intro:
e|--------------------------------------------|
B|--------------------------------------------|
G|--------------------------------------------|
D|--------------------------------------------|
A|---999999----5h7--999999---5h7/999-7\5------|
E|---777777---------777777--------------------|

Verse:
e|---------------------------------------------------------------------------|
B|----------------------------888777---12 12 12 12 12 12 12 12 12------------|
G|----------------77777777----777777---11 11 11 11 11 11 11 11 11------------|
D|---99999999----77777777-----555555----9-9--9--9--9-9--9--9-9---------------|
A|---99999999----55555555----------------------------------------------------|
E|---77777777----------------------------------------------------------------|
[ Tab from: http://www.guitartabs.cc/tabs/m/matthew_good/oh_be_joyful_tab.html ]
Pre-Chorus:
e|--------------------------------------------------------------------|
B|--------------------------------------------------------------------|
G|--------------------------------------------------------------------|
D|--------------------------------------------------------------------|
A|--------------------------------------------------------------------|
E|---5h7--5h7--5h7------5h7--5h7--5h7---------------------------------|

Chorus: There's a second guitar that makes this a bit confusing, but I believe the
note is played about 24 times. There may be another chord in there, but I'm not sure.
e|----------------------------------------------------------------------|
B|------888777---12--------------10-------8-----------------------------|
G|------777777---11-x24----------9-x8-----7-x8--------------------------|
D|------555555----9--------------7--------5-----------------------------|
A|----------------------------------------------------------------------|
E|----------------------------------------------------------------------|

Solo: Figure it out on your own. I'll start you off.
e|-------------------------------------------------------------------------|
B|-------------------------------------------------------------------------|
G|-------------9--11----------9--11----------------------------------------|
D|----9--12----------9X--12------------------------------------------------|
A|-------------------------------------------------------------------------|
E|-------------------------------------------------------------------------|

Bridge: Just palm mute the chorus, but listen to the song for length and timing
Chorus

Outro: This is mostly correct. Just play high notes on the b string
e|--------------------------------------------------------------------------|
B|---------9/12---15----------9/12--------------9/12----------9/12---15-----|
G|---7h9------------------7h9---------------7h9-----------7h9---------------|
D|--------------------------------------------------------------------------|
A|--------------------------------------------------------------------------|
E|--------------------------------------------------------------------------|

=============================================================
Comments