Matthew Good - Alert Status Red Chords & Tabs

 

Alert Status Red Chords & Tabs

Matthew Good Chords & Tabs

Version: 1 Type: Tab 0 ratings
1 star 2 stars 3 stars 4 stars 5 stars
comments

Alert Status Red Tab

   
-------------------------------------------------------------------------------
			     Alert Status Red - Band Name
-------------------------------------------------------------------------------
Tabbed by: The Pete-Ster
Email: buddha360@hotmail.com

Tuning: Half-Step Down (Eb,Ab,Db,Gb,Bb,Eb)

Pm-Palm mute
~ -Let ring
[ Tab from: http://www.guitartabs.cc/tabs/m/matthew_good/alert_status_red_tab.html ]
Intro - Guitar 1 X2
e|---------------------------------------------------------------------------|
B|---------------------------------------------------------------------------|
G|------0-------0---------0--------------------------------------------------|
D|-------0-------0---------0-------------------------------------------------|
A|---------3-3-3-------------3-333220----------------------------------------|
E|-0-0-0-----------3-3-0--3--------------------------------------------------|
                      pm
Verse 1&2 - Guitar 1
e|-0---0---3---0-------------------------------------------------------------|
B|-0---1---3---1-------------------------------------------------------------|
G|-0---0---0---0-------------------------------------------------------------|
D|-2---2---0---2-------------------------------------------------------------|
A|-2---3---2---3-------------------------------------------------------------|
E|-0-------3-----------------------------------------------------------------|
Verse 1&2 - Guitar 2
e|---------------------------------------------------------------------------|
B|---------------------------------------------------------------------------|
G|-7-9-------7-9------7-9-------7--9-7-99------------------------------------|
D|-x-x-7-9-7-x-x-7-9--x-x-7-9-7-x--x-x-xx------------------------------------|
A|-5-7-------5-7------5-7-------5--7-5-77------------------------------------|
E|---------------------------------------------------------------------------|
Chorus - Guitar 1
e|-0---0---0-----------------------------------------------------------------|
B|-3---0---1-----------------------------------------------------------------|
G|-2---0---0-----------------------------------------------------------------|
D|-0---2---2-----------------------------------------------------------------|
A|-----2---3-----------------------------------------------------------------|
E|-----0---------------------------------------------------------------------|
Chorus - Guitar 2
e|---------------------------------------------------------------------------|
B|-----10-12-10-----10-12-10------8-10-8------8-10-8------8-10-8-12^-12-10-8-|
G|-7-9----------7-9---------------------------------------------------------9|
D|---------------------------9-10--------9-10--------9-10--------------------|
A|---------------------------------------------------------------------------|
E|---------------------------------------------------------------------------|
Solo
e|---------------------------------------------------------------------------|
B|--------12-10--------12-10-------------12-10--------12-10------------------|
G|-9-11-9-------9-11-9-------7-9--9-11-9-------9-11-9-------7-9--------------|
D|---------------------------------------------------------------------------|
A|---------------------------------------------------------------------------|
E|---------------------------------------------------------------------------|

e|---------------10-10---------------------10-10-----------------------------|
B|10101010101010-------8-8-10--------12-10-------8-8-10----------------------|
G|----------------------------9-11-9-----------------------------------------|
D|---------------------------------------------------------------------------|
A|---------------------------------------------------------------------------|
E|---------------------------------------------------------------------------|

e|---------------------------------------------------------------------------|
B|-----8-8-10/12121212121212-------------------------------------------------|
G|-9-9------------------------7--9~------------------------------------------|
D|---------------------------------------------------------------------------|
A|---------------------------------------------------------------------------|
E|---------------------------------------------------------------------------|
These are all the parts too the song just put them in order
Comments