Matt Wertz - Im Sorry Mary Chords & Tabs

 

Im Sorry Mary Chords & Tabs

Matt Wertz Chords & Tabs

Version: 1 Type: Tab 0 ratings
1 star 2 stars 3 stars 4 stars 5 stars
comments

Im Sorry Mary Tab

I'm Sorry Mary
by Matt Wertz
(from the acoustic EP)
Tabbed by Matt Baker

-The Verses and Choruses-

e----------------------------------|
b-----5-------3-2------------------|
g-------7------------2-4-----2-4---|
d----0-0-0---0-0----0-0-----0-0----|
a----------------------------------|
E--7--------5------3-------3-------|


e----------------------------------|
b-----5--------8-7-----------------|
g-------7-------------2-0-----2-0--|
d----0-0-0----0-0----0-0-----0-0---|
a----------------------------------|
E--7--------10------3-------3------|     (over and over)


-Bridge-
[ Tab from: http://www.guitartabs.cc/tabs/m/matt_wertz/im_sorry_mary_tab.html ]
e-------------------------------------|
b-------------------------------------|
g-------------------------------------|
d----0-0-----0-0-----0-0-----0-0------|
a-------------------------------------|
E--22-2-2--33-3-3--77-7-7--55-5-5-----|  (x4)


(Verse Uno)
I wish I could say what words won't amount to,
But now I can't speak your name
Send it in a letter
Wait for your reply
Because you were on my mind

(Chorus)
I'm sorry Mary but it's over
I'm sorry Mary but it's over
I'm sorry Mary but it's over

(Verse Dos)
First star I see tonight hangs on my wall
Picture of you that's still there
Wouldn't change anything
Would you change me if I could
Would you want me to be here

(Chorus)

(Bridge)
Illusions all but faded
Sunlight beams in your hair
Trying me

(Chorus)
Comments