Matt Wertz - Counting Chords & Tabs

 

Counting Chords & Tabs

Matt Wertz Chords & Tabs

Version: 1 Type: Tab 0 ratings
1 star 2 stars 3 stars 4 stars 5 stars
comments

Counting Tab

This is only my 2nd tab. I thought I'd do one for Matt since noone has any up here. This 
an awesome song. Enjoy and have fun with this one.

Intro and verse
Slap when you hear it.

----------x----------x---------x-------------x---|
----------x----------x---------x-------------x---|
-------11-x-------11-x-------9-x---8---8h9---x---|
---9------x---9------x---9---9-x---9---9-----x---|
-7---7----x-6---6----x---------x-------------x---|
----------x----------x-9---9---x-7---7-------x---|

Never been much good on my own
So I'm tryin' to find somebody else
Never been good at findin' much except
Loneliness all by myself
Spottin' you ain't been easy
I could use one hint maybe two
Cause I got this spot right beside me baby
Waiting here just for you


How much longer will this game go on
I guess only time will tell
I hate to hear that you're all alone
Overlooked in search of someone else


Chorus

---------x---------x---------x-------------------|
-------9-x---------x---------x-------------------|
-------9-x-------6-x-------8-x-------------------|
---9-----x---7---7-x---9---9-x---11----9---------|
-7---7---x---------x---------x-------------------|
---------x-5---5---x-7---7---x-9----7------------|
[ Tab from: http://www.guitartabs.cc/tabs/m/matt_wertz/counting_tab.html ]
So you go hide
And I'll come seek
Maybe someday in the middle
We just might meet

---------x---------x---------x-------------------|
-------9-x---------x---------x-------------------|
-------9-x-------6-x-------8-x-------------------|
---9-----x---7---7-x---9---9-x-11----------------|
-7---7---x---------x---------x-------------------|
---------x-5---5---x-7---7---x-9-----------------|

Cause I'm counting to a hundred
And I promise I won't peek

---------x---------x---------x-------------------|
-------9-x---------x---------x-------------------|
-------9-x-------6-x-------8-x-------------------|
---9-----x---7---7-x---9---9-x-11---9------------|
-7---7---x---------x---------x-------------------|
---------x-5---5---x-7---7---x-9----7------------|

As you go hide
And I come seek

---------x---------x---------|
-------9-x---------x---------|
-------9-x-------6-x-8-------|
---9-----x---7---7-x-9-------|
-7---7---x---------x---------|
---------x-5---5---x-7-------|


Bridge

-4---2---4-2-0------------------------------------|
-5---4---5-4-1------------------------------------|
-6---4---6-4-0------------------------------------|
-6---4---6-4-2------------------------------------|
-4---2---4-2-0------------------------------------|
--------------------------------------------------|

Please show your face
Because I want you to be it
I want you to be it
Comments