Matt Skiba - The City That Day Chords & Tabs

 

The City That Day Chords & Tabs

Matt Skiba Chords & Tabs

Version: 2 Type: Tab 0 ratings
1 star 2 stars 3 stars 4 stars 5 stars
comments

The City That Day Tab

heres another tab of a great acoustic song by matt, strumming is the key in this song,
it sounds correct, if not exact, it still sounds good. enjoy guys: remember get the
strumming down, up and down, and down strokes.

intro: is played throughout, get that strumming down,
e|--0-0-0-0-0-0-0-0--0-0----------------------------|
B|--0-0-0-0-0-0-0-0--2-2----------------------------|
G|--1-1-1-1-1-1-1-1--2-2--4-4-4-4-4-4---------------| repeat throughout the
D|--2-2-2-2-2-2-2-2--2-2--4-4-4-4-4-4---------------| two verses, until 
A|--2-2-2-2-2-2-2-2--0-0--2-2-2-2-2-2---------------| the outro:
E|--0-0-0-0-0-0-0-0---------------------------------|
[ Tab from: http://www.guitartabs.cc/tabs/m/matt_skiba/the_city_that_day_tab_ver_2.html ]
outro: 1
e|--0-0-0-0-0-0-0-0------------0-0-0-----------|
B|--0-0-0-0-0-0-0-0------------2-2-2-----------|
G|--1-1-1-1-1-1-1-1--6-6---4-4-2-2-2-4-4-------|repeat 2x
D|--2-2-2-2-2-2-2-2--6-6---4-4-2-2-2-4-4-------|
A|--2-2-2-2-2-2-2-2--4-4-0-2-2-0-0-0-2-2-------|
E|--0-0-0-0-0-0-0-0----------------------------|
hey! if you PM the E open chord during the outro...it sounds cool, try it!
outro: 2 end
e|--0-0-0-0-0-0-0-0------------0-0-0------0~~0~~----------------------------|
B|--0-0-0-0-0-0-0-0------------2-2-2------2~~0~~----------------------------|
G|--1-1-1-1-1-1-1-1--6-6---4-4-2-2-2-4-4--2~~1~~----------------------------|
D|--2-2-2-2-2-2-2-2--6-6---4-4-2-2-2-4-4--2~~2~~----------------------------|
A|--2-2-2-2-2-2-2-2--4-4-0-2-2-0-0-0-2-2--0~~2~~----------------------------|
E|--0-0-0-0-0-0-0-0--------------------------0~~----------------------------|

short and sweet, thanks, dan...hitemup44@aol.com
Comments