Matt Skiba - The City That Day Chords & Tabs

 

The City That Day Chords & Tabs

Matt Skiba Chords & Tabs

Version: 1 Type: Tab 0 ratings
1 star 2 stars 3 stars 4 stars 5 stars
comments

The City That Day Tab

   
“The City That Day”
Matt Skiba
Tabbed by: bt12483@aol.com

/= slide
r= let ring

Intro: (:00 to :11)
e|--------------------------------------| 
b|------------------------8-------------| 
G|--8---------------------8-[x8]--------| 
D|--8-[x11]-5-[x3]-6-[x2]-6------8------| 
A|--6----------------------------8-[x8]-| 
E|-------------------------------6------|
[ Tab from: http://www.guitartabs.cc/tabs/m/matt_skiba/the_city_that_day_tab.html ]
(:10 to 1:23)
e|------------------------| 
b|----------8-------------| 
G|--8-------8-[x8]--------| 
D|--8-[x16]-6------8------| 
A|--6--------------8-[x8]-| 
E|-----------------6------|

To the City That Day. . . (1:28 to 1:41)
e|--------------------------| 
b|--------------------------| 
G|-8------------------------| 
D|-8-[x16]-10-10/8-8/6------| 
A|-6-------10-10/8-8/6-[x8]-| 
E|----------8--8/6-6/4------|

End: (1:42 to end)
e|-----------------------------| 
b|-----------------------------| 
G|8------------------------/8r-| 
D|8-[x16}-10-10/8-8/6-6/8-8/8r-| 
A|6-------10-10/8-8/6-6/8-8/6r-| 
E|---------8--8/6-6/4-4/6-6----|
Comments