Matt Skiba - In Your Wake Chords & Tabs

 

In Your Wake Chords & Tabs

Matt Skiba Chords & Tabs

Version: 1 Type: Tab 0 ratings
1 star 2 stars 3 stars 4 stars 5 stars
comments

In Your Wake Tab

   
“In Your Wake”
Matt Skiba
Tabbed by: bt12483@aol.com

/= slide
r= let ring

Verse: (:00 to :23)
e|-----------------------| 
b|-----------------------| 
G|-5-------------8-------| 
D|-5-[x8]-6------8-[x16]-| 
A|-3------6-[x8]-6-------| 
E|--------4--------------|

Like a phone call... (:24 to :27)
e|-----------------------| 
b|-----------------------| 
G|-----------------------| 
D|-8------6------8-------| 
A|-8-[x8]-6-[x8]-8-[x16]-| 
E|-6------4------6-------|

Verse: (:28 to :41)
e|-----------------------| 
b|-----------------------| 
G|-5-------------8-------| 
D|-5-[x8]-6------8-[x16]-| 
A|-3------6-[x8]-6-------| 
E|--------4--------------|

Miss you at all... (:42 to :46)
e|-----------------------| 
b|-----------------------| 
G|-----------------------| 
D|-8------6------8-------| 
A|-8-[x8]-6-[x8]-8-[x16]-| 
E|-6------4------6-------|

Here lies, our dreams... (:47 to :55)
e|---------------------------------------| 
b|---------------------------------------| 
G|-5---------------5---------------------| 
D|-5-------6-------5-------6------8------| 
A|-3-[x16]-6-[x16]-3-[x16]-6-[x8]-8-[x8]-| 
E|---------4---------------4------6------|

Want you to know... (:56 to 1:04)
e|-----------------------| 
b|-----------------------| 
G|-8---------------------| 
D|-8-[x16]-6------8------| 
A|-6-------6-[x8]-8-[x8]-| 
E|---------4------6------|

It’s been so hard to see and breath... (1:05 to 1:09) 
e|------------------------------| 
b|------------------------------| 
G|------------------------------| 
D|-10------8------6------8------| 
A|-10-[x8]-8-[x8]-6-[x8]-8-[x8]-| 
E|--8------6------4------6------|
[ Tab from: http://www.guitartabs.cc/tabs/m/matt_skiba/in_your_wake_tab.html ]
In Your Wake... (1:10 to 1:19)
e|--------------------------| 
b|--------------------------| 
G|-8------------------------| 
D|-8-[x11]-10-/-8-/-6-------| 
A|-6-------10-/-8-/-6-[x16]-| 
E|----------8-/-6-/-4-------|

Verse: (1:20 to 1:41)
e|-----------------------| 
b|-----------------------| 
G|-5-------------8-------| 
D|-5-[x8]-6------8-[x16]-| 
A|-3------6-[x8]-6-------| 
E|--------4--------------|

Miss you at all... (1:42 to 1:46)
e|-----------------------| 
b|-----------------------| 
G|-----------------------| 
D|-8------6------8-------| 
A|-8-[x8]-6-[x8]-8-[x16]-| 
E|-6------4------6-------|

Here lies, our dreams... (1:47 to 1:55)
e|---------------------------------------| 
b|---------------------------------------| 
G|-5---------------5---------------------| 
D|-5-------6-------5-------6------8------| 
A|-3-[x16]-6-[x16]-3-[x16]-6-[x8]-8-[x8]-| 
E|---------4---------------4------6------|

Want you to know... (1:56 to 2:04)
e|-----------------------| 
b|-----------------------| 
G|-8---------------------| 
D|-8-[x16]-6------8------| 
A|-6-------6-[x8]-8-[x8]-| 
E|---------4------6------|

It’s been so hard to see and breath... (2:05 to 2:09) 
e|------------------------------| 
b|------------------------------| 
G|------------------------------| 
D|-10------8------6------8------| 
A|-10-[x8]-8-[x8]-6-[x8]-8-[x8]-| 
E|--8------6------4------6------|

In Your Wake... (2:10 to 2:23)
e|--------------------------| 
b|--------------------------| 
G|-8------------------------| 
D|-8-[x11]-10-/-8-/-6-------| 
A|-6-------10-/-8-/-6-[x16]-| 
E|----------8-/-6-/-4-------|

End (2:24 to 2:30)
e|-------------------------------------| 
b|-------------------------------------| 
G|-8--------------------------------8r-| 
D|-8-[x11]-10-/-8-/-6------/-8------8r-| 
A|-6-------10-/-8-/-6-[x8]-/-8-[x8]-6r-| 
E|----------8-/-6-/-4------/-6---------|
Comments