Matt Skiba - Good Fucking Bye Chords & Tabs

 

Good Fucking Bye Chords & Tabs

Matt Skiba Chords & Tabs

Version: 1 Type: Tab 0 ratings
1 star 2 stars 3 stars 4 stars 5 stars
comments

Good Fucking Bye Tab

   
Good Fucking Bye
Matt Skiba
Tabbed by: bt12483@aol.com

/= slide
()= optional

Intro and Verse (:00 to :43)
e|-------------------------------------------| 
b|-------------------------------------------| 
G|-555-66666-555-66666-555-6666-5------------| 
D|-666-66666-666-66666-666-6666-6-555-666-88-| 
A|---------------------444-4444-4-666-666-66-| 
E|-------------------------------------------|

Chorus: Im tired of being bored . . .  (:44 to :58)
e|---------------------------------------------------| 
b|---------------------------------------------------| 
G|-------------66-66-88-88-------------66-66/8/6-----| 
D|-66-66-66-66-66-66-88-88-66-66-66-66-66-66/8/6/(6)-| 
A|-66-66-66-66-44-44-66-66-66-66-66-66-44-44/6/4/(6)-| 
E|-44-44-44-44-------------44-44-44-44----------/(4)-|
[ Tab from: http://www.guitartabs.cc/tabs/m/matt_skiba/good_fucking_bye_tab.html ]
Verse (:59 to 1:41) bass comes in at 1:27 mark (same rhythm as chorus)
e|-------------------------------------------| 
b|-------------------------------------------| 
G|-555-66666-555-66666-555-6666-5------------| 
D|-666-66666-666-66666-666-6666-6-555-666-88-| 
A|---------------------444-4444-4-666-666-66-| 
E|-------------------------------------------|

Chorus: Im tired of being bored . . .  (1:42 to 1:56)
e|----------------------------------------------| 
b|----------------------------------------------| 
G|---------6------8--------------6-----/8/6-----| 
D|-6-------6-[x8]-8-[x8]-6-------6-[x8]/8/6/(6)-| 
A|-6-[x16]-4------6------6-[x16]-4-----/6/4/(6)-| 
E|-4---------------------4-----------------/(4)-|

Outro (1:57 to end)
e|-------------------------------------------| 
b|-------------------------------------------| 
G|-555-66666-555-66666-555-6666-5------------| 
D|-666-66666-666-66666-666-6666-6-555-666-88-| 
A|---------------------444-4444-4-666-666-66-| 
E|-------------------------------------------|
Comments