Matt Skiba - Demons Away Chords & Tabs

 

Demons Away Chords & Tabs

Matt Skiba Chords & Tabs

Version: 1 Type: Tab

Demons Away Tab

Intro/verse
e|-----------------------------------------------------------------------------|
B|-----------------------------------------------------------------------------|
G|----9------------------------------------------------------------------------|
D|----9---(x14)---11----------------7---------------9--------------------------|
A|----7-----------11----(x14)-------7----(x14)------9---(x9)-------------------|
E|----------------9-----------------5---------------7--------------------------|


play this behing the intro


e|-----------------------------------------------------------------------------|
B|-------12---12------10--10----9--9----7--7-----------------------------------|
G|-----------------------------------------------------------------------------|
D|-----------------------------------------------------------------------------|
A|-----------------------------------------------------------------------------|
E|-----------------------------------------------------------------------------|


Chorus
[ Tab from: http://www.guitartabs.cc/tabs/m/matt_skiba/demons_away_tab.html ]
e|-----------------------------------------------------------------------------|
B|-----------------------------------------------------------------------------|
G|-----------------------------------------------------------7-----------------|
D|-----6------------7---------9--------5-------7------7------7-----------------|
A|-----6------------7---------9--------5-------7------7------9-----------------|
E|-----4------------5---------7--------7-------9------5------------------------|

the part where it goes" and baby i can tell you been crying...."

e|-----------------------------------------------------------------------------|
B|-----------------------------------------------------------------------------|
G|-----------------------------------------------------------------------------|
D|-------7--------7------------------------------------------------------------|
A|-------7--------7----------------------------------(x4)----------------------|
E|-------5--------9------------------------------------------------------------|


Intro
verse
chorus
verse
chorus
bridge
chorus x2)